#1
There's one on here, but it's just terrible, nothing is right on it except the basic "bassline"

If anyone could make a accurate tab, I'll give you an e-hug.

Thanks!
Peavey 6505+
Fender Hot Rod Deville 410
Fender Telecaster Blacktop
Gretsch G5120
#2
I'll tab it...I got the first part already...this is the intro for now, the rest you'll see it on UG in a few days...as Brian uses to play, you can palm mute some parts..

(strum)
e|----3-------|
B|----3-------|
G|----2-------|
D|----1-------|
A|-------------|
E|-------------|

e|----0-------------------------------------------|
B|----0-------------------------------------------|
G|----0-------------------------------------------| (2)
D|----2-------------------------------------------|
A|----2--------0--2------------0---2------------|
E|----0---3b---------0---3b--------------------|

e|----0--------------------------------------|
B|----1--------------------------------------|
G|----2--------------------------------------|
D|----2--------0----2---------------0---2--|
A|----0---3b-------------0-----3b----------|
E|--------------------------------------------|

e|----0-------------------------------------------|
B|----0-------------------------------------------|
G|----0-------------------------------------------|
D|----2-------------------------------------------|
A|----2--------0--2------------0---2------------|
E|----0---3b---------0---3b--------------------|


e|------------------------------------------------------------------------------------------------------------|
B|-------------------------------------------------------------------------------------------------------------|
G|-----------------------------------------------2-------------------------------------------------------2----|
D|----------4-----4-----4-------2------2------2---------------4------4-----4-------2------2--------2----|
A|---0h2------5----5---------------3------3---------0-0h2-------5-----5---------------3------3---------|
E|--------------------------------------------------------------------------------------------------------------|


e|-------------------------------------------------------------------------|
B|-------------------------------------------------------------------------|
G|-------------------------------------------------------------------------|
D|--------------4------4------4-------4----------------------------------|
A|---0-0h2--------5------5------2--------0-----------------------------|
E|------------------------------------------------3---2---1-------------|


e|----0-------------------------------------------|
B|----0-------------------------------------------|
G|----0-------------------------------------------| (2)
D|----2-------------------------------------------|
A|----2--------0--2------------0---2------------|
E|----0---3b---------0---3b--------------------|


e|---------------------------------------------------------------------------------------------------------|
B|----------------------------------------------------------------------------------------------------------|
G|----------------------------------------------------------------------------------------------------------|
D|-22--2-2---2/4-4----4-4---4/5-5----5-5---5/7-7-----7-7---7/9-9------9-9---9/10-10--------|
A|-22--2-2---2/4-4----4-4---4/5-5----5-5---5/7-7-----7-7---7/9-9------9-9---9/10-10---------|
E|-----3---------------5----------------7-----------------9-----------------10----------------------------|

e|-----------------------------------------------15151515-----------0------------------|
B|-----------------------------------------------15151515-----------0------------------|
G|-----------------------------------------------14141414-----------0------------------|
D|-------10-10---10/12-12-------12-12----13131313----------2------------------|
A|-------10-10---10/12-12-------12-12---------------------------2------------------|
E|--12--------------------------14------------------------------------0-------------------|
#3
great, it actually sounds right! good job
Peavey 6505+
Fender Hot Rod Deville 410
Fender Telecaster Blacktop
Gretsch G5120