#2
It would help if the song had an artist/title to go with it, but I found a site that may help: http://animescores.com/forum/index.php?sid=ac02eea102ac9850ff345277a7ea64b6

Scroll down to the bottom for the requests/sheet music page. Not sure if this helps, but again, no idea who does the song, or what it's called.
On a stop light green means go and yellow means slow down, but on a banana it's just the opposite. Green means hold on, yellow means go ahead, and red means, 'where the f*** did you get that banana at?'
-Mitch Hedberg
#3
Drop D tuning..

e|---------------------------------------------------------------------------|
B|---------------------------------------------------------------------------|
G|---------------------------------------------------------------------------|
D|--99---111111---99---1111---99---1111---------------------|
A|--99-----9-9-9----99---9--9----99---9--9------------------------|
D|--99-----9-9-9----99---9--9----99---9--9-------------------------|

e|---------------------------------------------------------------------------|
B|---------------------------------------------------------------------------|
G|---------------------------------------------------------------------------|
D|--99---111111---99---1111---14141414---------------------|
A|--99-----9-9-9----99---9--9----12121212-----------------------|
D|--99-----9-9-9----99---9--9----12121212------------------------|

e|---------------------------------------------------------------------------|
B|---------------------------------------------------------------------------|
G|---------------------------------------------------------------------------|
D|--99---111111---99---1111---99---1111---------------------|
A|--99-----9-9-9----99---9--9----99---9--9------------------------|
D|--99-----9-9-9----99---9--9----99---9--9-------------------------


e|-----------------------------------------------|
B|-----------------------------------------------|
G|-----------------------------------------------|
D|--99---111111---99---1111-------------|
A|--99-----9-9-9----99---9--9---------------|
D|--99-----9-9-9----99---9--9--------------|


e|---------------------------------------------------------------------------|
B|---------------------------------------------------------------------------|
G|---------------------------------------------------------------------------|
D|---19--19----16--16--1616----16161616---18------------------|
A|---17--17----14--14--1414----12121212---14---------------|
D|---17--17----14--14--1414----12121212---14-------------------|