#1
Hey all, I've scoured the web trying to find tabs for Syl Johnson's 'Is it Because I'm black?' and have had no luck, which is sad because I think it is a decently classic and well-known song. If anyone knows the tabs I'd be greatful for them. Thanks in advance.
#2
just the chords..
Abm Dbm and repeat...strum the chords below..
e|----11-----10/11-------8/9-----------------|
B|----12-----11/12-------8/9-----------------|
G|----11-----10/11-------8/9-----------------|
D|----13-----12/13-------10/11--------------|
A|----11-----10/11-------10/11--------------|
E|---------------------------8/9-----------------|
#3
Thanks man. Do you also know what the tabs for the ten second intro to the song are? I assume they're very simple but I'm just a beginner so I can't tell what it is.
#4
3tr4 meaning 3h4p3h4p3h4

e|---------------------------------------------------------------------------|
B|---------------------------------------------------------------------------|
G|------3--3tr4--------3---3tr4---6---4---3----------------------------|
D|--6---------------6-----------------------------4------4----------------|
A|-----------------------------------------------------6---------------------|
E|---------------------------------------------------------------------------|
#6
Sorry to resurrect an old thread, but I'm having trouble getting this chord progression to sound right. No one has seen a video online of this being played have they? I would love to see someone play this.

Thanks.