#1
Can someone check this video out for me
http://www.youtube.com/watch?v=irF6xrBbgn0&feature=related
i get how to do the intro.. not to great on the strumming yet tryin to work on it.. but around :50ish he starts "in case you were wondering..." that little verse.. he starts going to it looks like a C -chord shape and also some type of G shape chord but with the LOW E ion like the 3rd fret.. wut chords are these and why can't i find the tab for this? he does like pull ofs and hammer on's can someone tab this or help me out i think if i could get some of the chords out i could fig it out myself but i wanna know how to play the song like this its the best onei'v seen and this is how they playit live


Thanks
Johnny
#2
is this the part you want????????/

e|---0--------0-------0--------0------0-----0-------0----0---------------------------|
B|---0--------0-------0--------0------0-----0-------0-----0--------------------------|
G|---0--------0-------0--------0------0-----0h2----2----2p0------------------------|
D|---2--------2-------0--------0------2-----0-------0----0----------------------------|
A|---2--------3-------x--------x-------3-----3-------3----3---------------------------|
E|---3--------3-------3--------2--------------------------------------------------------|
Last edited by crmrz at Aug 13, 2008,
#4
i cant' get the strumming down perfect it goes.. DDUD on E minor then on 075500 DDUD then it goes to 035500 DDUD? then he puts his finger on 034500 right? how many times do u strum that twice? then back down to 035500 for one strum?
#5
I hope this helps you..this is the intro..later when he starts singing, he as you know omits the sliding chords..

e|---0------0-----0----------0--0-------0--0--------------------------------------|
B|---0------0-----0----------0--0-------0--0---------------------------------------|
G|---0------7-----7/9\7-----7--5-------5--5---------------------------------------|
D|---2------7-----7/9\7-----7--5-------4--4h5------------------------------------|
A|---2------5-----5/7\5-----5--3-------3---3--------------------------------------|
E|---0---------------------------------------------------------------------------------|

022000
UUUD

X57700
UUUD

X57700-X3550
U-UUD

X35500-X34500-X34h5500
U-UDU-D
Last edited by crmrz at Aug 13, 2008,
#6
thx man help's alot!! i dont see him doing this cord @ all though X3440 .. are you making this tab urself? can i find it somewhere else the tab of like the chorus n stuff with the 322000 cords n stuff or did you just fig it out urself? either waythanks man appericate ur help !
Last edited by expo703 at Aug 9, 2008,
#7
I made some mistakes above that I just corrected them (sorry)..Actually I was trying to figure it out myself..but I was in a hurry and didn't doublecheck what I was typing..and watching the video again I think this guy is playing simply Em:022000
Cmaj7:x32000 G6:3x0000 G6/F#: 2X000 , he's using different fingers than the traditional fingering..
Last edited by crmrz at Aug 13, 2008,
#8
GRR now i'm all confused someone needs to tab this song like he played it b/c it sounds exactly right compared to the other tabs...