#1
Hi… messing around with this fingerpicking/strumming piece… what other different (easy) chords could be added here (key of G)?

  G             C            D             C  
e ----3------------0------------2------2------0------0---
b -----------0------------1----------3-------------1-----
g ---------0------------0----------1-------------0-------
d -------0------------2---------0------------------------
a -----------------3--------------------------3----------
e ----3-------------------------------------------------- etc.


Thanks.
#3
e ---------2----------------2-4-2
b -------3--------------- 2---------2
g ----2-----------------2------------2
d - 0- ----------------4 -------------4
#4
Well, that's a I-IV-V in the key of G, one of the most common chord progressions ever. I recommend you read this lesson on what chords fit into a key, and then come back to us if you have any questions.

http://www.ultimate-guitar.com/lessons/chords/what_chords_are_in_what_key_and_why.html
Quote by dudetheman
So what? I wasted like 5 minutes watching DaddyTwoFoot's avatar.


Metalheads are the worst thing that ever happened to metal.
#5
Any chords in G major of course. A Cadd9 tends to sound good as a substitution of plain C Major. Am and Bm, as well as the Em already mentioned would be great also. And read Senor TwoFoot's link.