#2
Not to be mean but you cant figure it out? It's not that hard.
Guitars:
Ibanez UV777P
Ibanez RGD2127FX
Ibanez RG3120TW
Ibanez RGD7321
Ibanez RG6003FM
Ibanez SA160
Jackson Slatxmg3-7
Amps:
Baron Custom Amps K88
Rivera Knucklehead TRE
Fryette Sig: X
Randall RM4 /w Modded modules
Cabs:
Mesa 4x12
Bogner 4x12
Peavey 4x12(K85s)
#3
eb---------------------------------------------------------------------
Bb--------12-12-12-13-13-13-12-12-12-10-10-10-----------
Gb-9-9-9-------------------------------------------------12-12-12

eb-------------19-19-19-20-20-20-19-19-19-17-17-17
Bb-17-17-17--------------------------------------------------19-19-19

Thats the main melody
I play a guitar strung with Yngwie's chest hair
#4
Quote by BHC zoley
eb---------------------------------------------------------------------
Bb--------12-12-12-13-13-13-12-12-12-10-10-10-----------
Gb-9-9-9-------------------------------------------------12-12-12

eb-------------19-19-19-20-20-20-19-19-19-17-17-17
Bb-17-17-17--------------------------------------------------19-19-19

Thats the main melody


is that the whole song? i thought there was more to it
#5
well it's a stupid modern day rap song its not gonna be that complex
I play a guitar strung with Yngwie's chest hair
#6
Quote by BHC zoley
well it's a stupid modern day rap song its not gonna be that complex


what strings is the riff played on btw i don't no what tuning that is
#7
That's standard down half a step(E flat) so its played on the first three strings if you're in standard move that tab up one fret(half a step)
I play a guitar strung with Yngwie's chest hair
#8
i like your melody for it but i thort the main riff was even more simple..

e -------------------------------------
b --------11---11-9---9/7---7-6--- and repeat missing out first note
g --8--8---------------------------8--
d --------------------------------------
a --------------------------------------
e --------------------------------------
#9
i think it would sound better if it has a second guitar playing power chords in the verse could someone tab that too?
Last edited by the-god-of-rock at Aug 13, 2008,