#1
Hello.

I've been playing for a few months now, roughly 4 or 5. I can play Fade To Black by Metallica fairly well and the only thing i am now struggling with is the end solo.

I can play the first part of the solo, however when it comes to the fast repeating licks like :

|---------7-------------
|-------------10^7----
|-9^full----------------
|------------------------
|------------------------
|------------------------

I am just unable to perform these even remotely fast enough.

What I am asking is:

Are there any lessons on UG, or any suggestions that you can give me to help improve on these types of licks.

Any help is much appreciated, thanks.
#2
just practise with a metronome, i've had exactly the same problem.
---------------------------
Main gear
Prs Custom 22
Gibson LP Junior
Marshall DSL 50 Head
Marshall 1936 2x12
Trex OD, MXR Super Comp
Korg Pitch Black, MXR Carbon Copy.
PedalTrain 2 (soft case)
#3
kirk is in love with bluesy little licks like that, so practice all of the ones you can find. here's one you'll find in a ton of rock n' roll and blues songs.

|----------------7-------
|----------7-------------
|-9^full----------------
|------------------------
|------------------------
|------------------------

the next issue with that lick is that you have to hit the third string, skip over the second string and hit the first string, then come back and hit the second string. it might not seem like it, but this next exercise will help you unimaginably.
d.s. ^ d.s. ^ d.s. ^ ^ ^ ^ ^ ^ ^
|-----------------------------------5h6--6p5
|------------------------------5h6------------6p5
|-----------------------5h6------------------------6p5
|----------------5h6------------------------------------6p5
|---------5h6-----------------------------------------------6p5
|--5h6----------------------------------------------------------6p5

d.s. stands for downstroke and ^ means up stroke. and yes, on those strings with ^ above, you really have to hit them moving your pick up, towards your head. that's possible the greatest exercise i've found in a while, so keep at it!
I can't stand watching people waste their money on horrible gear.
#4
It's a modified form of

E---------------7-----------------|
B-----------7-----10p7----------|
G----7b9-------------------------|
Current Gear:
LTD MH-400
PRS SE Custom 24 (Suhr SSH+/SSV)
Ibanez RG3120 Prestige (Dimarzio Titans)
Squier Vintage Modified 70s Jazz V
Audient iD22 interface
Peavey Revalver 4, UAD Friedman BE100/DS40
Adam S3A monitors
Quote by Anonden
You CAN play anything with anything....but some guitars sound right for some things, and not for others. Single coils sound retarded for metal, though those who are apeshit about harpsichord probably beg to differ.