#1
Will anyone provide help?

E|----------------------------------------------------------------------????????????
B|----------------------------------------------------------------------????????????
G|----------------------------------------------------------------------????????????
D|-----------3----3------------------3----3------------3----3--------????????????
A|--1--------------------0---------------------------------------------????????????
E|---------------------------------------------1------------------------????????????

Any ideas how to finish it.
the count is 1 beat for each note, and there is a 1 beat skip between the first and 3rd note.

* I prefer if its 4 notes with 1 beat each to finish the riff.
Id like to use it for a song but i just cant seem to get this right.
Im a young and new guitarist so easy on the criticism please.*
#2
E--------
B--------
G----------
D----3--3----3--3------3-3-----3-3---~~------
A-1--------0--------------------------------------1~~
E---------------------3--------1--------------------
Last edited by toine at Aug 19, 2008,