#1
Hello guys,
I tried searching for the tab everywhere but no luck, so i am desperate, and you guys are my last hope.

I absolutely love the song, the intro is amazing, and im sure many people would like to learn it too. But unfortunately, im not able to figure it out

Whoever makes the tab gets my BIG THANKS for life

Here is a youtube link: http://www.youtube.com/watch?v=Zj2hs-Mk4iU&feature=related
Here is a link to download: http://www.sendspace.com/file/l1l4q7

thank you for taking the time to read my post =)
many thanks in advance
Last edited by Drake22 at Aug 20, 2008,
#2
bump
it sounds easy, im sure it would take you couple minutes to figure it out, it goes about 30 seconds and it is repetitive. Or at least please tell me where to start thanks
#3
That is a pretty good intro.
Sorry, haven't written it out in all the detail, but here are the basics...

|------------------------------------------
|------------------------------------------
|------------------------------------------
|----2-0h2-----5-0h2-----2-0h2----5---7----
|-2---------2---------2-----------3---5----
|-0---------0---------0--------------------

|------------------------------------------
|------------------------------------------
|------------------------------------------
|----2-0h2-----5-0h2-----2-0h2----5--------
|-2---------2---------2-----------3---5----
|-0---------0---------0---------------3----


Standard tuning. You'll need to pick more notes on the open E string where the chords appear and a couple of extra strokes on the ending chords. It seems to just be those two stuck together and played over during the intro though so hope that helps.
Quote by Mia (Pulp Fiction)
Why do we feel it's necessary to yak about bullsh*t in order to be comfortable?

That's when you know you found somebody special. When you can just shut the f*ck up for a minute, and comfortably share silence.

RateYourMusic