#2
I figured out the very intro, but that's as far as I got. It's simple. If you want me to send it to you I will.
"Ultimate"-Guitar is the worst website on the internet. Polluted with unintelligent mongoloids.
#3
that'd be awesome. or just post here as code or something. anything would be cool.
Вяєҭҭ
ZeGuitarist's sister is hawt.
?)
#4
|-----12-------12-------12-------12-------14-------14---|
|---13—-13---13--13---12--12---12--12---15--15---15--15-|
|-14--------14------12-------12-------12-------12-------|
|-------------------------------------------------------|
|-------------------------------------------------------|
|-------------------------------------------------------|


I'm pretty sure it's correct. I figured it out a couple hours ago, and this is just from memory.
"Ultimate"-Guitar is the worst website on the internet. Polluted with unintelligent mongoloids.
#5
I've got MOAR


Gtr.1 [clean]:
|-----12-------12-------12-------12-------14-------14---|
|---13—-13---13--13---12--12---12--12---15--15---15--15-|
|-14-------14-------12-------12-------12-------12-------|
|-------------------------------------------------------|
|-------------------------------------------------------|
|-------------------------------------------------------|
[x2, then plays under lead and solo]

Gtr 2. [distorted]:

e-------------------------------------------I 
B-------------------------------------------I
G---4s2~~2s4----------4s2~~2s4-2-----------------I 
D-5----------5-----5-----------------I 
A-------------------------------------------I 
e-------------------------------------------I x2

e--------------------------------------------------------I
B--------------------------------------------------------I
G---4s2~~2s4---2s4-4s5-5s7-4--2s4-4s5-5s7-7p4--4-5-2~~--I
D------------5------------------------------------------I
A--------------------------------------------------------I
e--------------------------------------------------------I

Gtr 2. [Clean]

[Let ring as much as possible]

e--------------------------------------------------------------------I
B--------------------------------------------------------------------I                                   
G----5--4-2-0---------0-----0-------5--4-2-5-----5--4-2-2------I                                          
D-------------------0-----0-----------------------------------------I                                               
A--2-------------2------2--------2------------2-------------------I                                          
E--------------------------------------------------------------------I  x10


The intro solo isn't finished, along with a few bum notes. Feel free to put me right on it.

EDITED for form formatting yet again, it seems copyandpasta from notepad is a little difficult, lol! And if you do feel like using this in a full tab, consider that I saved at least a little effort and give me some credit
Last edited by jack.sonic at Aug 21, 2008,
#6
I already submitted earlier, and posted in the Metallica topic.

Metallica - The Day That Never Comes
Transcribed by Exo M7
8/21/08

Intro 

Guitar 1 (Clean guitar w/ flange)

1st:-------12----------12----------12----------12----
2nd:----13----13----13----13----12----12----12----12-
3rd:-14----------14----------12----------12----------
4th:-------------------------------------------------
5th:-------------------------------------------------
6th:-------------------------------------------------

1st:-------14----------14----------12----------12----
2nd:----12----12----12----12----13----13----13----13-
3rd:-12----------12----------14----------14----------
4th:-------------------------------------------------
5th:-------------------------------------------------
6th:------------------------------------------------- x2

Guitar 2 (Overdriven electric)

1st:-----------------------------------------
2nd:-----------------------------------------
3rd:-7--7h9-------------7--7h9---------------
4th:--------7-7-7h9-5~----------7-7-7h9--7~--
5th:-----------------------------------------
6th:----------------------------------------- x2

1st:---------------------------------------------------------
2nd:---------------------------------------------------------
3rd:-7--7h9--------------------------------------------------
4th:--------7-7-7h9-5--5-5p7-7-7p9-9-9p10-9-5p7--7h9-10-9p7--
5th:---------------------------------------------------------
6th:---------------------------------------------------------

             | 3 | | 3 | | 3 |	  | 3 |
1st:----------------------------------------------------
2nd:----------------------------------------------------
3rd:-------------------5---5-7-5----5---------7-9-7-----
4th:-5-7-7---5-7-9-7-9---9--------9---9/-9-10-------10--
5th:----------------------------------------------------
6th:----------------------------------------------------

1st:------------------------
2nd:-----------------8--10~-
3rd:-7--9--10--9--10--------
4th:------------------------
5th:------------------------
6th:------------------------

Verse 1

Guitar 1 (clean)

1st:-----------------------------------------------------------------
2nd:-----1---0--------------------------1---0-----1-----1---0--------
3rd:---2-------2---0------0-------0-----------2-------0-------0---2--
4th:--------------------0-------0------------------------------------
5th:-0-----0-----0----2-------2-------2-------------3-----3-----3----
6th:----------------3-------3-------0-----0-----0-------------------- x8



That was as far as I felt like going today, I'm tired of this song already >_>
Quote by H4T3BR33D3R
Way to show everybody up jackass.

Guitar: _______________ Amp:
_ Ibanez SZ320 _________Fender Hot Rod Deluxe

V-Picks!
#7
Exo man I'm not sure about that verse. Without playing it i can see there are too many notes in that 2x arpeggio. (the G on the 6th isn't in the song). And I'm also sure that lead and solo at the start has slides in it.

For everyone's reference, the song is in G major, at least the first half.
#8
Sounds exactly right to me...


Guitar 3 (rhythm w/distortion)

1st:------------------------------------0-------------
2nd:------------------------------------0-------------
3rd:-2---2-2---------0----0-0-----------0-------------
4th:-2---2-2---------0----0-0--------2--2---5-5--5-5--
5th:-0---0-0-xx-3-2--x----x-x--------2------3-3--2-2--
6th:-----------------3----3-3-xx-5-3-0---------------- x4

Guitar 2 (lead w/overdrive)

1st:---------------------------------------------------
2nd:---------------------------------------------------
3rd:-5~------5-5h7-5-4~------4-4h5-4--------5-5--5-5---
4th:---------------------------------5-----------------
5th:---------------------------------------------------
6th:--------------------------------------------------- x2

1st:----------------------------
2nd:----------------------------
3rd:-------------------0-1-2-1--
4th:-------------0-2-3----------
5th:-------0-2-3----------------
6th:-0-3-4----------------------

Verse 2

Guitar 2 (lead w/overdrive)

1st:-----------------------------------------
2nd:-----------------------------------------
3rd:-7--7h9-------------7--7h9---------------
4th:--------7-7-7h9-5~----------7-7-7h9--7~--
5th:-----------------------------------------
6th:----------------------------------------- x2

1st:---------
2nd:---------
3rd:---------
4th:-7h9p7~--
5th:---------
6th:---------

Guitar 1 (clean)

1st:-----------------------------------------------------------------
2nd:-----1---0--------------------------1---0-----1-----1---0--------
3rd:---2-------2---0------0-------0-----------2-------0-------0---2--
4th:--------------------0-------0------------------------------------
5th:-0-----0-----0----2-------2-------2-------------3-----3-----3----
6th:----------------3-------3-------0-----0-----0-------------------- x4

Chorus 2

Guitar 3 (rhythm w/distortion)

1st:------------------------------------0-------------
2nd:------------------------------------0-------------
3rd:-2---2-2---------0----0-0-----------0-------------
4th:-2---2-2---------0----0-0--------2--2---5-5--5-5--
5th:-0---0-0-xx-3-2--x----x-x--------2------3-3--2-2--
6th:-----------------3----3-3-xx-5-3-0---------------- x4

Guitar 2 (lead w/overdrive)

1st:---------------------------------------------------
2nd:---------------------------------------------------
3rd:-5~------5-5h7-5-4~------4-4h5-4--------5-5--5-5---
4th:---------------------------------5-----------------
5th:---------------------------------------------------
6th:--------------------------------------------------- x2

1st:----------------------------
2nd:----------------------------
3rd:-------------------0-1-2-1--
4th:-------------0-2-3----------
5th:-------0-2-3----------------
6th:-0-3-4----------------------


first two choruses, second verse

I don't like that last riff. I listened to that for hours. I think that sounds right though. Maybe there's a harmony in it. Which would piss me off. ;_;

Guitar 3 (rhythm w/distortion)

1st:-----------------------------------------------------------
2nd:-----------------------------------------------------------
3rd:-----------------------------------------------------------
4th:-----------------------------------------------------------
5th:-----------------------------------------------------------
6th:-8p0-8p0-8p0-8p0-8p0-8p0-8p0-8p0-7p0-7p0-7p0-7p0-7p0-7p0-0-

Guitar 2 (lead w/overdrive)

1st:-8p0-8p0-8p0-8p0-8p0-8p0-8p0-8p0-7p0-7p0-7p0-7p0-7p0-5p0-0-
2nd:-----------------------------------------------------------
3rd:-----------------------------------------------------------
4th:-----------------------------------------------------------
5th:-----------------------------------------------------------
6th:-----------------------------------------------------------


I love that riff ^^
Quote by H4T3BR33D3R
Way to show everybody up jackass.

Guitar: _______________ Amp:
_ Ibanez SZ320 _________Fender Hot Rod Deluxe

V-Picks!
Last edited by Exo M7 at Aug 21, 2008,
#9
Good job on those chourses, and that ascending run is spot on.

I still think theres too many notes on that 1st verse. Will you try mine and tell me what you think?
#10
OK, here's my (almost) finished, newly submitted version. If anyone wants to help with the harmony or that one little damn part, please do ;D

Metallica - The Day That Never Comes
Transcribed by Exo M7
8/21/08-8/22/08

Intro 

Guitar 1 (Clean guitar w/chorus)

1st:-------12----------12----------12----------12----
2nd:----13----13----13----13----12----12----12----12-
3rd:-14----------14----------12----------12----------
4th:-------------------------------------------------
5th:-------------------------------------------------
6th:-------------------------------------------------

1st:-------14----------14----------12----------12----
2nd:----15----15----15----15----13----13----13----13-
3rd:-12----------12----------14----------14----------
4th:-------------------------------------------------
5th:-------------------------------------------------
6th:------------------------------------------------- x2

Guitar 2 (Lead electric w/overdrive)

1st:-----------------------------------------
2nd:-----------------------------------------
3rd:-7--7h9-------------7--7h9---------------
4th:--------7-7-7h9-5~----------7-7-7h9--7~--
5th:-----------------------------------------
6th:----------------------------------------- x2

1st:---------------------------------------------------------
2nd:---------------------------------------------------------
3rd:-7--7h9--------------------------------------------------
4th:--------7-7-7h9-5--5-5p7-7-7p9-9-9p10-9-5p7--7h9-10-9p7--
5th:---------------------------------------------------------
6th:---------------------------------------------------------

             | 3 | | 3 | | 3 |	  | 3 |
1st:----------------------------------------------------
2nd:----------------------------------------------------
3rd:-------------------5---5-7-5----5---------7-9-7-----
4th:-5-7-7---5-7-9-7-9---9--------9---9/-9-10-------10--
5th:----------------------------------------------------
6th:----------------------------------------------------

1st:------------------------
2nd:-----------------8--10~-
3rd:-7--9--10--9--10--------
4th:------------------------
5th:------------------------
6th:------------------------

Verse 1

Guitar 1 (clean)

1st:-----------------------------------------------------------------
2nd:-----1---0--------------------------1---0-----1-----1---0--------
3rd:---2-------2---0------0-------0-----------2-------0-------0---2--
4th:--------------------0-------0------------------------------------
5th:-0-----0-----0----2-------2-------2-------------3-----3-----3----
6th:----------------3---------------0-----------0-------------------- x8

Chorus 1

Guitar 3 (rhythm w/distortion)

1st:------------------------------------0-------------
2nd:------------------------------------0-------------
3rd:-2---2-2---------0----0-0-----------0-------------
4th:-2---2-2---------0----0-0--------2--2---5-5--5-5--
5th:-0---0-0-xx-3-2--x----x-x--------2------3-3--2-2--
6th:-----------------3----3-3-xx-5-3-0---------------- x4

Guitar 2 (lead w/overdrive)

1st:---------------------------------------------------
2nd:---------------------------------------------------
3rd:-5~------5-5h7-5-4~------4-4h5-4--------5-5--5-5---
4th:---------------------------------5-----------------
5th:---------------------------------------------------
6th:--------------------------------------------------- x2

1st:----------------------------
2nd:----------------------------
3rd:-------------------0-1-2-1--
4th:-------------0-2-3----------
5th:-------0-2-3----------------
6th:-0-3-4----------------------

Verse 2

Guitar 2 (lead w/overdrive)

1st:-----------------------------------------
2nd:-----------------------------------------
3rd:-7--7h9-------------7--7h9---------------
4th:--------7-7-7h9-5~----------7-7-7h9--7~--
5th:-----------------------------------------
6th:----------------------------------------- x2

1st:---------
2nd:---------
3rd:---------
4th:-7h9p7~--
5th:---------
6th:---------

Guitar 1 (clean)

1st:-----------------------------------------------------------------
2nd:-----1---0--------------------------1---0-----1-----1---0--------
3rd:---2-------2---0------0-------0-----------2-------0-------0---2--
4th:--------------------0-------0------------------------------------
5th:-0-----0-----0----2-------2-------2-------------3-----3-----3----
6th:----------------3---------------0-----------0-------------------- x4

Chorus 2

Guitar 3 (rhythm w/distortion)

1st:------------------------------------0-------------
2nd:------------------------------------0-------------
3rd:-2---2-2---------0----0-0-----------0-------------
4th:-2---2-2---------0----0-0--------2--2---5-5--5-5--
5th:-0---0-0-xx-3-2--x----x-x--------2------3-3--2-2--
6th:-----------------3----3-3-xx-5-3-0---------------- x4

Guitar 2 (lead w/overdrive)

1st:---------------------------------------------------
2nd:---------------------------------------------------
3rd:-5~------5-5h7-5-4~------4-4h5-4--------5-5--5-5---
4th:---------------------------------5-----------------
5th:---------------------------------------------------
6th:--------------------------------------------------- x2

1st:----------------------------
2nd:----------------------------
3rd:-------------------0-1-2-1--
4th:-------------0-2-3----------
5th:-------0-2-3----------------
6th:-0-3-4----------------------

Bridge

1st:-------------------------------------------------
2nd:-------------------------------------------------
3rd:----------------------------2--------5--------4--
4th:-------------5--------------2--------5--------4--
5th:-------0-2-3-5--------0-2-3-0--------3--------2--
6th:-0-3-4-------3--0-3-4----------0-3-4----0-3-4----

1st:----------------------------
2nd:----------------------------
3rd:-------------------0-1-2-1--
4th:-------------0-2-3----------
5th:-------0-2-3----------------
6th:-0-3-4----------------------

1st:---------------------------------
2nd:---------------------------------
3rd:---------------------------------
4th:-5---2---4---2---5---2---4---2---
5th:-3---2---2---2---3---2---2---2---
6th:-----0-------0-------0-------0/--

1st:---------------------------------------------------------------------
2nd:---------------------------------------------------------------------
3rd:---------------------------------------------------------------------
4th:---------------------------------------------------------------------
5th:-7-7---10-7-10--7-7---10-7-10--7-7---10-7-10---9-8-------------------
6th:-0-0---0--0-0---0-0---0--0-0---0-0---0--0-0----7-6-0-0-0-0-0-0-3-0-2- x4

1st:--------------------------------------------------------------------------
2nd:--------------------------------------------------------------------------
3rd:--------------------------------------------------------------------------
4th:-----------------------------------------2-4---4-6-2-6-7-4--7-7-7--7-7-7--
5th:-4-4----------4-4----------4-4-----------0-2-6-2-4-0-4-5-2--5-5-5--5-5-5--
6th:-2-2---5-2-5--2-2---5-2-5--2-2---5-2-5-------4----------------------------

1st:----------------------------
2nd:----------------------------
3rd:-------------------0-1-2-1--
4th:-------------0-2-3----------
5th:-------0-2-3----------------
6th:-0-3-4---------------------- x2

(drums)

1st:------------------------------------------------------------------------------------------
2nd:------------------------------------------------------------------------------------------
3rd:------------------------------------------------------------------------------------------
4th:---------------------------------------------------------------------------------------1~-
5th:------------------------------------------------------------------------------------------
6th:-0-0-0-0-0-0-0-0-0-0---0-0-0-0-0-0-0-0-0-0---0-0-0-0-1p0---0-0-0-0-1p0--0-0-0-0-1p0-0-0--- x3

Then there's a harmony part I haven't figured everything out yet for, but I will udpate...

1st:---------------------------------
2nd:---------------------------------
3rd:---------------------------------
4th:-5---2---4---2---5---2---4---2---
5th:-3---2---2---2---3---2---2---2---
6th:-----0-------0-------0-------0/-- 

1st:---------------------------------------------------------------------------------------
2nd:---------------------------------------------------------------------------------------
3rd:---------------------------------------------------------------------------------------
4th:---------------------------------------------------------------------------------------
5th:---------------------------------------------------------------------------------------
6th:-0h5h8-0h5h8-0h5h8-0h5h8-0h5h8-0h5h8-0h5h8-0h5h8-0h5h7-0h5h7-0h5h7-0h5h7-0h4h7-0h4h7-0- x4

1st:-0h5h8-0h5h8-0h5h8-0h5h8-0h5h8-0h5h8-0h5h8-0h5h8-0h5h7-0h5h7-0h5h7-0h5h7-0h4h7-0h4h7-0- 
2nd:---------------------------------------------------------------------------------------
3rd:---------------------------------------------------------------------------------------
4th:---------------------------------------------------------------------------------------
5th:---------------------------------------------------------------------------------------
6th:--------------------------------------------------------------------------------------- x2

1st:--------------------7-7------ 
2nd:------------5-8-8-5-----8----
3rd:-----------------------------
4th:-5---2---4-------------------
5th:-3---2---2-------------------
6th:-----0-----------------------
(below is the harmony part)
1st:----------------------------- 
2nd:------------0-5-5-0-8-8-5----
3rd:-----------------------------
4th:-----------------------------
5th:-----------------------------
6th:-----------------------------

1st:---
2nd:---
3rd:---
4th:-2-
5th:-2-
6th:-0-
Quote by H4T3BR33D3R
Way to show everybody up jackass.

Guitar: _______________ Amp:
_ Ibanez SZ320 _________Fender Hot Rod Deluxe

V-Picks!
Last edited by Exo M7 at Aug 22, 2008,
#11
PART DEUX

(drums)

---

1st:--------------------------------------
2nd:--------------------------------------
3rd:-----------------------7--------------
4th:-4-2-----4-2-----2-4-7-5-7/9-7--------
5th:-2-0-5-2-2-0-5-2-0-2-5---5/7-5-7/9-7--
6th:-----3-0-----3-0---------------5/7-5-- 

1st:----------------------------------
2nd:----------------------------------
3rd:-----------------------7----------
4th:-4-2-----4-2-----2-4-7-5-----4----
5th:-2-0-5-2-2-0-5-2-0-2-5---2-5-2-5--
6th:-----3-0-----3-0---------0-3---3-- x2

Solo

1st:---------------------------------------------------------------
2nd:---------------------------------------------------------------
3rd:----------------------------------------------7----------7-----
4th:-9///^(12)---10^(12)-10^(12)-10^(12)9p----7/9---9-9/-7-9---9-9-
5th:---------------------------------------9-----------------------
6th:---------------------------------------------------------------

1st:-------------------------------------------
2nd:-------------------------------8--10--12~/-
3rd:-----7-----7-9^(11)-7---7-9-11-------------
4th:-7/9---9-9------------9--------------------
5th:-------------------------------------------
6th:-------------------------------------------

1st:/17p15p14-------17p14p12------------
2nd:----------17p15----------15p12------...I can only guess what's being
3rd:------------------------------------ played here, it's mostly
4th:------------------------------------ a chromatic descension thing.
5th:------------------------------------ 
6th:------------------------------------

1st:-------------------------8-------10------------
2nd:------------8-----10--10---10-10-----10---11---
3rd:-7-----9--9---9-9--------------------12^--13^--
4th:---9-9-----------------------------------------
5th:-----------------------------------------------
6th:-----------------------------------------------

---

1st:-14----------14----------14----------14----------
2nd:----12-10-12----12-10-12----12-10-12----12-10-12-
3rd:-------------------------------------------------
4th:-------------------------------------------------
5th:-------------------------------------------------
6th:-------------------------------------------------

1st:-15----------15----------15----------15----------
2nd:----13-12-13----13-12-13----13-12-13----13-12-13-
3rd:-------------------------------------------------
4th:-------------------------------------------------
5th:-------------------------------------------------
6th:-------------------------------------------------

1st:-17----------17----------17----------17----------
2nd:----15-13-15----15-13-15----15-13-15----15-13-15-
3rd:-------------------------------------------------
4th:-------------------------------------------------
5th:-------------------------------------------------
6th:-------------------------------------------------

1st:-19----------17----------19----------17----------
2nd:----17-15-17----17-15-17----17-15-17----17-15-17-
3rd:-------------------------------------------------
4th:-------------------------------------------------
5th:-------------------------------------------------
6th:------------------------------------------------- x2

---

1st:-24-22-21-23-21-20-22-20-19-21-19-18-20-18-17-19-17-16-18-16-15-17-15-14-
2nd:-------------------------------------------------------------------------
3rd:-------------------------------------------------------------------------
4th:-------------------------------------------------------------------------
5th:-------------------------------------------------------------------------
6th:-------------------------------------------------------------------------

1st:-16-14-13-15-13-12-14-12-11-13-11-10-12-10-9-11-9-8-10--8--7---------------
2nd:--------------------------------------------------------------10--8--7-----
3rd:------------------------------------------------------------------------7~-
4th:---------------------------------------------------------------------------
5th:---------------------------------------------------------------------------
6th:---------------------------------------------------------------------------

1st:------------------------------------------15-17-19-20-22^(24)--
2nd:-----------10^---------------15^-------17----------------------
3rd:-------7h9-------------12h14--------16-------------------------
4th:-7/--9---------12/--14-----------14----------------------------
5th:---------------------------------------------------------------
6th:---------------------------------------------------------------

Ending

1st:---------------------------------------------------------------------------------------
2nd:---------------------------------------------------------------------------------------
3rd:---------------------------------------------------------------------------------------
4th:---------------------------------------------------------------------------------------
5th:---------------------------------------------------------------------------------------
6th:-0h5h8-0h5h8-0h5h8-0h5h8-0h5h8-0h5h8-0h5h8-0h5h8-0h5h7-0h5h7-0h5h7-0h5h7-0h4h7-0h4h7-0- x4

1st:-0h5h8-0h5h8-0h5h8-0h5h8-0h5h8-0h5h8-0h5h8-0h5h8-0h5h7-0h5h7-0h5h7-0h5h7-0h4h7-0h4h7-0- 
2nd:---------------------------------------------------------------------------------------
3rd:---------------------------------------------------------------------------------------
4th:---------------------------------------------------------------------------------------
5th:---------------------------------------------------------------------------------------
6th:--------------------------------------------------------------------------------------- x2

1st:------------------------------------------------------------------------
2nd:------------------------------------------------------------------------
3rd:------------------------------------------------------------------------
4th:-5-------4-------5-------4------------------5-------4-------------------
5th:-3---2---2---2---3---2---2------------------3---2---2-------------------
6th:-----0-------0-------0------3-2-0-0-3-2-0-0-----0------3-2-0-0-3-2-0-0--

1st:-------------------------------------------
2nd:-------------------------------------------
3rd:-------------------------------------------
4th:-5--4--10-9--------2--5--4--10-9--------2--
5th:-3--2--8--7--5--4--2--3--2--8--7--5--4--2--
6th:-------------3--2--0--------------3--2--0--

1st:----------------------
2nd:----------------------
3rd:----------------------
4th:-0---4----------------
5th:-0---4---5-4-3-5-4-3--
6th:-----2---5-4-3-5-4-3-- x2

1st:----------------------
2nd:----------------------
3rd:----------------------
4th:-5--4--10-9--------2--
5th:-3--2--8--7--5--4--2--
6th:-------------3--2--0--

1st:-0h5h8-0h5h8-0h5h8-0h5h8-0h5h8-0h5h8-0h5h8-0h5h8-0h5h7-0h5h7-0h5h7-0h5h7- 
2nd:-------------------------------------------------------------------------
3rd:-------------------------------------------------------------------------
4th:-------------------------------------------------------------------------
5th:-------------------------------------------------------------------------
6th:-------------------------------------------------------------------------

1st:------------------------------------------------------------------------------------
2nd:------------------------------------------------------------------------------------
3rd:------------------------------------------------------------------------------------
4th:------------------------------------------------------------------------------------
5th:--------------------------------------------------------------------------8-8-8-8-7-
6th:-0h5h8-0h5h8-0h5h8-0h5h8-0h5h8-0h5h8-0h5h8-0h5h8-0h5h7-0h5h7-0h5h7-0h5h7--8-8-8-8-7-
Quote by H4T3BR33D3R
Way to show everybody up jackass.

Guitar: _______________ Amp:
_ Ibanez SZ320 _________Fender Hot Rod Deluxe

V-Picks!
#12
Whoa, they actually used different frets than 3, 5, and 6 on this album! St. Anger was ridiculous.
#13
Hey Exo, I've been playing around with your tab and I find one note that stick outs, that 2nd Low E... I just don't hear it in the song.

edit: I'm talking about the clean verse line...
#14
You're right. Replace that with a B (2nd fret, fifth string)

thx
Quote by H4T3BR33D3R
Way to show everybody up jackass.

Guitar: _______________ Amp:
_ Ibanez SZ320 _________Fender Hot Rod Deluxe

V-Picks!
#17
[font="Courier New"]-------------------------|-------------------|-------------------------|
-------------------------|-------------------|-------------------------|
--7----9-----------------|-------------------|--7----9-----------------|
----------7-----7S--9----|--5----------------|----------7-----7S--9----|
--5----7-----------------|-------------------|--5----7-----------------|
----------5-----5S--7----|--3----------------|----------5-----5S--7----|


  W                   Q    E  E  E  E   Q       W                 
-------------------|-------------------------|-------------------|
-------------------|-------------------------|-------------------|
-------------------|--7----9-----------------|-------------------|
--7----------------|----------7-----7S--9----|--5----------------|
-------------------|--5----7-----------------|-------------------|
--5----------------|----------5-----5S--7----|--3----------------|
[/FONT]
...

  Q    E  E  E  E   Q    
--7----9-----------------|
----------7-----7S--9----|
--5----7-----------------|
----------5-----5S--7----|

  Q    E   E  E   E  E    E     Q    E   E  E   E  E    S S  
-----------------------------|------------------------------|
-----------------------------|------------------------------|
-----------------------------|------------------------------|
--5----5S--7--7S--9--9S--10--|--9----5S--7--7S--9--9S--10---|
-----------------------------|------------------------------|
--3----3S--5--5S--7--7S---8--|------------------------------|


   S  E.  E  Q    Q    T S.    Q.     S S E  S S  E  S  S  
----------------------------|-----------------------------|
----------------------------|-----------------------------|
----------------------------|-----------------------------|
--10p-7---L--5----7----5-7--|--L------5-7-9--7-9-10--9-10-|
----------------------------|-----------------------------|
----------------------------|-----------------------------|


            3    3  3         3                                     
   E   S E  E    E  S Q.      S   S     E.   E.   S S E.   E.   E   
------------------------------------|------------------------------|
------------------------------------|------------------------------|
------------------------------------|-----------------9------------|
--12--10----9h--10--9-L------(9)\-L-|--/9---10---12-------12---10--|
------------------------------------|------------------------------|
------------------------------------|------------------------------|


   |-----3----|    |-----3-----|                                               
   Q    Q     Q    Q     Q     Q        W                                      
------------------------------------|---------------------|-------------------|
------------------------------------|---------------------|-------------------|
--------9----10----9----10----12----|--14~----------------|-------------------|
--12--------------------------------|---------------------|-------------------|
------------------------------------|---------------------|-------------------|
------------------------------------|---------------------|-------------------|



Intro solo,
Quote by StraightxXxEdge
Quote by Truespin
you can't use a guitar to replace your lack of charm or social skills.

Worked for Malmsteen.
#18
Here's the real verse riff for you wondering.

   E  E  E  E  E  E  E  E     E  E  E  Q    E  E  E  
|--------------------------|-------------------------|
|--------1-----0-----------|-------------------------|
|-----------------2-----2--|-----------0----------0--|
|-----2-----2--------------|--------0----------0-----|

|--0-----------------0-----|-----2----------2--------|
|--------------------------|--3----------------------|


  E  E  E  E  E  E  E  E     E  E  E  E  E  E  E    E    
--------------------------|-----------------------------|
--------1-----0--------1--|--------1-----0--------------|
-----------------2--------|-----------------0-------2---|
--------------------------|-----2-----2-----------------|
-----2-----2--------2-----|--3-----------------2p--(0)--|
--0-----------------------|-----------------------------|



And here's the chorus...


                               PM PM PM PM                          
                      H        E  E  E  E     H        E  E  E  E   
-------------------|-----------------------|-----------------------|
-------------------|-----------------------|-----------------------|
-------------------|-----------------------|--2--------------------|
-------------------|-----------7--7--L--7--|--2--------------------|
-------------------|-----------5--5--L--5--|--0--------0--3--0-----|
-------------------|-----------------------|--------------------3--|


  H        E  E  E  E     H        H           E  E  Q    E  E  Q     
-----------------------|-----------0--------|------------------------|
-----------------------|-----------0--------|------------------------|
-----------------------|--------------------|------------------------|
--5--------------------|--2-----------------|-----5--5-------5--5----|
--5--------------------|--2-----------------|--x--3--3----x--3--3----|
--3--------3--5--3--0--|--0-----------------|--x--3--3----x--3--3----|


  H        E  E  E  E     H        E  E  E  E     H        H         
-----------------------|-----------------------|-----------0--------|
-----------------------|-----------------------|-----------0--------|
--2--------------------|-----------------------|--------------------|
--2--------------------|--5--------------------|--2-----------------|
--0--------0--3--0-----|--5--------------------|--2-----------------|
--------------------3--|--3--------3--5--3--0--|--0-----------------|


  E  E  Q    E  E  Q        H         E   E   E  E     H        E   E  E  E   
------------------------|---------------------------|------------------------|
------------------------|---------------------------|------------------------|
------------------------|---------------------------|------------------------|
-----5--5-------5--5----|--10--------10--12--10--9--|--9--------9--10--9--7--|
--x--3--3----x--3--3----|---------------------------|------------------------|
--x--3--3----x--3--3----|---------------------------|------------------------|


  W                   E   E   Q    E   E   Q        H         E   E   E  E   
-------------------|----------------------------|---------------------------|
-------------------|----------------------------|---------------------------|
-------------------|----------------------------|---------------------------|
--5----------------|--x--10--10----x--10--10----|--10--------10--12--10--9--|
-------------------|----------------------------|---------------------------|
-------------------|----------------------------|---------------------------|


  H        E   E   E   E     W                   E   E   Q    E   E   Q     
--------------------------|-------------------|----------------------------|
--------------------------|-------------------|----------------------------|
--------------------------|-------------------|----------------------------|
--9--------9--10--12--10--|--9----------------|--x--10--10----x--10--10----|
--------------------------|-------------------|----------------------------|
--------------------------|-------------------|----------------------------|


  PM PM PM PM PM PM PM PM PM PM PM                                             
  |--3--|  |--3--|  |--3--|  |--3--|                                           
  E  E  E  E  E  E  E  E  E  E  E  E     W                   W                 
--------------------------------------|-------------------|-------------------|
--------------------------------------|-------------------|-------------------|
--------------------------------------|-------------------|-------------------|
--------------------0--2--3--2--3--6--|--6----------------|--L----------------|
-----------0--2--3--------------------|-------------------|-------------------|
--0--1--4-----------------------------|-------------------|-------------------|



This was taken from a guitar pro tab found on this site...
Quote by StraightxXxEdge
Quote by Truespin
you can't use a guitar to replace your lack of charm or social skills.

Worked for Malmsteen.
Last edited by Josher.K at Oct 23, 2008,
#19
Sorry for triple posting, but i keep running out of room... last one... main solo


  S  S   S   S   S   S   S   S   S   S   S   S   S   S   S   S    
-----------------------------------------------------------------|
-----------------------------------------------------------------|
--2b-2pb-2pb-2pb-2pb-2pb-2pb-2pb-2pb-2pb-2pb-2pb-2pb-2pb-2pb-2pb-|
-----------------------------------------------------------------|
-----------------------------------------------------------------|
-----------------------------------------------------------------|


  E    S E    S E    S E.   E  S  S    S E.   E  S  S S E.   E  S  S  
------------------------------------|--------------------------------|
------------------------------------|--3--------------3--------------|
--4br--2-4br--2-4br--2---------2h-4-|----4~---L--2h-4---4~---L--2h-4-|
-----------------------4~---L-------|--------------------------------|
------------------------------------|--------------------------------|
------------------------------------|--------------------------------|


          |--3--|                       
  S S S S S   S S S S S. S. S. S. S. T  
-------------------------------5--6----|
--3---3-5-5br-L-3-5---5--7--8----------|
----4---------------4------------------|
---------------------------------------|
---------------------------------------|
---------------------------------------|


                 |---6---|  |---6---|  |---6---|  |---6---|  
  Q.       S  S  S   S   S  S   S   S  S   S   S  S   S   S  
--7~---------14-17p-15p-14------------17p-15p-14------------|
----------17---------------17p-15p-14------------17p-15p-14-|
------------------------------------------------------------|
------------------------------------------------------------|
------------------------------------------------------------|
------------------------------------------------------------|


   |---6---|  |---6---|  |---6---|  |---6---|  |---6--|  |---6--|  |---6--|  |--
   S   S   S  S   S   S  S   S   S  S   S   S  S   S  S  S   S  S  S   S  S  S  
--17p-15p-14------------17p-15p-14------------12p-10p-9-----------12p-10p-9-----
-------------17p-15p-14------------17p-15p-14-----------12p-10p-8-----------12p-
--------------------------------------------------------------------------------
--------------------------------------------------------------------------------
--------------------------------------------------------------------------------
--------------------------------------------------------------------------------


                        |--3--|              
   S S S  S  S  S S  S  S   S S  S S S S E   
--10-9-7h-9p-7------------------------------|
---------------10-8-10-10br-L-8-10-8-L---8--|
---------------------------------------9----|
--------------------------------------------|
--------------------------------------------|
--------------------------------------------|


  S S S S S S S S S S S S S S S  S    S S S S E  S S S S S  S E   S  S  
-----------------------------------|-----------------------------------|
--8---7---6---5---4---3---2--------|--5---3-5-L--5-5-8-5-8-10-L--10-10-|
----9---8---7---6---5---4---3-x-/4-|----4------------------------------|
-----------------------------------|-----------------------------------|
-----------------------------------|-----------------------------------|
-----------------------------------|-----------------------------------|


   S  S  S  S Q     Q      Q      
---------------------------------|
--13-10-13-15-L----10-----11-----|
-------------------12b----13b----|
---------------------------------|
---------------------------------|
---------------------------------|


   S  S  S S  S  S  S S  S  S  S S  S  S  S S  
--14p-7----7-14p-7----7-14p-7----7-14p-7----7-|
--------10---------10---------10---------10---|
----------------------------------------------|
----------------------------------------------|
----------------------------------------------|
----------------------------------------------|


   S  S  S S  S  S  S S  S  S  S S  S  S  S S  
--15p-8----8-15p-8----8-15p-8----8-15p-8----8-|
--------12---------12---------12---------12---|
----------------------------------------------|
----------------------------------------------|
----------------------------------------------|
----------------------------------------------|


   S   S  S  S  S   S  S  S  S   S  S  S  S   S  S  S  
--17p-10----10-17p-10----10-17p-10----10-17p-10----10-|
---------13-----------13-----------13-----------13----|
------------------------------------------------------|
------------------------------------------------------|
------------------------------------------------------|
------------------------------------------------------|


   S   S  S  S  S   S  S  S  S   S  S  S  S   S  S  S  
--19p-12----12-17p-12----12-19p-12----12-17p-12----12-|
---------15-----------15-----------15-----------15----|
------------------------------------------------------|
------------------------------------------------------|
------------------------------------------------------|
------------------------------------------------------|


   S  S  S S  S  S  S S  S  S  S S  S  S  S S  
--14p-7----7-14p-7----7-14p-7----7-14p-7----7-|
--------10---------10---------10---------10---|
----------------------------------------------|
----------------------------------------------|
----------------------------------------------|
----------------------------------------------|


   S  S  S S  S  S  S S  S  S  S S  S  S  S S  
--15p-8----8-15p-8----8-15p-8----8-15p-8----8-|
--------12---------12---------12---------12---|
----------------------------------------------|
----------------------------------------------|
----------------------------------------------|
----------------------------------------------|


   S   S  S  S  S   S  S  S  S   S  S  S  S   S  S  S  
--17p-10----10-17p-10----10-17p-10----10-17p-10----10-|
---------13-----------13-----------13-----------13----|
------------------------------------------------------|
------------------------------------------------------|
------------------------------------------------------|
------------------------------------------------------|


   S   S  S  S  S   S  S  S  S   S  S  S  S   S  S  S  
--19p-12----12-17p-12----12-19p-12----12-17p-12----12-|
---------15-----------15-----------15-----------15----|
------------------------------------------------------|
------------------------------------------------------|
------------------------------------------------------|
------------------------------------------------------|


   One of Kirk's random runs..                                                  
   T                           T  T  T  T  T  T  T  T  T  T  T  T  T  T  T  T  T
--24--------------------------22-20-20-24-22-20-22-21-19-19-22-21-19-19-20-20-19
--------------------------------------------------------------------------------
--------------------------------------------------------------------------------
--------------------------------------------------------------------------------
--------------------------------------------------------------------------------
--------------------------------------------------------------------------------


   I don't have the patients to figure it out.                                  
   |-----------------------6----------------------|  |--6--|                    
   S                                           S  S  S  S  S  T  T  T  T  T  T  
--17------------------------------------------15-14-17-15-14-15-14-12-15-14-12-1
--------------------------------------------------------------------------------
--------------------------------------------------------------------------------
--------------------------------------------------------------------------------
--------------------------------------------------------------------------------
--------------------------------------------------------------------------------


  |--3--|          |---3--|              |---3---|                          
  E  E  E   E.   S E  E   E   E.   S     E   E   E   E   E   E   E   Q      
-----------------------------10b-----|--------------15--17--19--22--22b----|
-----------10b--------8--10----------|------15--17-------------------------|
-----7--9----------9-----------------|--16---------------------------------|
--9----------------------------------|-------------------------------------|
-------------------------------------|-------------------------------------|
-------------------------------------|-------------------------------------|
Quote by StraightxXxEdge
Quote by Truespin
you can't use a guitar to replace your lack of charm or social skills.

Worked for Malmsteen.