#1
28 Ghosts iv - nine inch nails

Song: http://www.youtube.com/watch?v=ASFFsXL2Iqg

I song is broken up into 3 separate guitar patterns.

First.

E-----------------------------------------------------------------------------
B------------------------------------------------------------------------------
G--7--7--7--7--7--5----14-------5--7--7--7--7--7---5----14----------
D-----------------------------------------------------------------------------
A-----------------------------------------------------------------------------
E-----------------------------------------------------------------------------


E----------------------------------------------------------------------------------------------------
B-----------------------------------------------------------------------------------------------------
G--5--5h7--7--7--7--7--5----14--14--14-14-14-14------7--7--7--7--7---5----14----------
D------------------------------------------------------------------------------------------------------
A------------------------------------------------------------------------------------------------------
E-------------------------------------------------------------------------------------------------------


second.

HELP ME! sounds like chords but i don't know which ones.


third. (i think)

E---x--10--12-------x--10--12--------x--10--12--15--------------------
B------------------------------------------------------------------------------
G-----------------------------------------------------------------------------
D-----------------------------------------------------------------------------
A-----------------------------------------------------------------------------
E-----------------------------------------------------------------------------
#2
One thing i'd say immediatly was change the tab for ease of playing:

Quote by Titan40

E-----------------------------------------------------------------------------
B--------------------------10----------------------------------10----------------
G--7--7--7--7--7--5-------------5--7--7--7--7--7---5----------------
D-----------------------------------------------------------------------------
A-----------------------------------------------------------------------------
E-----------------------------------------------------------------------------


E----------------------------------------------------------------------------------------------------
B---------------------------------10--10--10-10-10-10----------------------------10--------------
G--5--5h7--7--7--7--7--5-----------------------------------7--7--7--7--7---5--------------
D------------------------------------------------------------------------------------------------------
A------------------------------------------------------------------------------------------------------
E-------------------------------------------------------------------------------------------------------


And I believe your chords are, 'in order of apperance':

C Minor like this:

e-3-
B-4-
G-5-
D-5-
A-3-
E---

D# Major like this:

e---
B-8-
G-8-
D-8-
A-6-
e---

And A#sus4 like this

e---
B-6-
G-8-
D-8-
A-8-
e-6--
Last edited by jack.sonic at Aug 21, 2008,
#4
Quote by haalternative
Just an idea, but you in the first riff you could move the 14 on G to 9 on B. It would make the riff much more playable.


That's 10, actually. And I just covered this up thar ^^