#1
Yeah could someone write which fingers i should be using.

It goes ok til i get to the last 2 strings.

e-------------------------------------------------------5---7-5-8-7--------------
A-------------------------------------------5---7-5-8-7---8----------------------
D-------------------------------4---5-4-7-5---7----------------------------------
G-------------------4---5-4-7-5---7----------------------------------------------
B-------3---5-3-7-5---7----------------------------------------------------------
E-3-7-5---7----------------------------------------------------------------------


ty guys
Private guitar lessons available in West London, UK with an experienced and qualified tutor. Most subjects/styles covered. PM me for more information.
#2
I would probably use 1 2 4 1 4 2 1 4 2 1 4 2 1 4 2 1 4 2 1 4 2 1 3 4 1 4 3 1 4 3 1 4 3 .
#3
I think you better look at the tab again?

edit: easy mistake to make thought i know the exercise you're thinking of

edit 2: ooh right gotcha but theres a typo in your numbers dude.
Private guitar lessons available in West London, UK with an experienced and qualified tutor. Most subjects/styles covered. PM me for more information.
Last edited by g1asseye at Aug 25, 2008,
#4
Quote by g1asseye
Yeah could someone write which fingers i should be using.

It goes ok til i get to the last 2 strings.

e-------------------------------------------------------5---7-5-8-7--------------
A-------------------------------------------5---7-5-8-7---8----------------------
D-------------------------------4---5-4-7-5---7----------------------------------
G-------------------4---5-4-7-5---7----------------------------------------------
B-------3---5-3-7-5---7----------------------------------------------------------
E-3-7-5---7----------------------------------------------------------------------
1 4 2 1 4 2 1 4 2 1 4 2 1 4 2 1 4 2 1 4 2 1 3 3 1 4 3 1 4 3 1 4 3


ty guys


Thar.