#1
Does anyone know the classical riff solo in Neil Diamonds "play me," it is also on you tube for any of you tab geniuses.

thanks
#2
you probably know this, but this song is played with capo on the 2nd fret..I'm giving you the intro and the solo....


INTRO:
e|---------------------------|
B|-----------------1---------|
G|---------0----------0------| (2)
D|------2-----2--------------|
A|---3-----------------------|
E|----------------------------|

e|---------------------------|
B|-----------------1---------|
G|---------0----------0------| (2)
D|------3-----3--------------|
A|---3-----------------------|
E|----------------------------|

e|---------------------------|
B|-----------------1---------|
G|---------0----------0------| (2)
D|------2-----2--------------|
A|---3-----------------------|
E|----------------------------|

e|------------------------------------------------------|
B|-----------------1-----------------------------1-----|
G|---------0--------------0h2--0----------0----------|
D|------3-----3------3-----------------3--------------|
A|---3--------------------------------------------------|
E|-------------------------------------------------------|


SOLO:
e|--3-----0--1--0----1/3------0--1--0----1/3-----0--1--0--1p0---1/3-----1p0----1p0---------|
B|--------------------------------------------------------------------------------------------------1-----|
G|--------------------------------------------------------------------------------------------------------|
D|--------------------------------------------------------------------------------------------------------|
A|--------------------------------------------------------------------------------------------------------|
E|--------------------------------------------------------------------------------------------------------|


e|--1--0------1--0-------1---0----------------------------------------------|
B|---------1----------1------------1p0h1---------------------------3/5-----|
G|-----------------------------------------------2----0------------------------|
D|------------------------------------------------------------2--3-------------|
A|------------------------------------------------------------------------------|
E|------------------------------------------------------------------------------|

e|-----3-----0--1--0----1/3------0--1--0----1/3-----0--1--0--1p0---1/3-----1p0----1p0-----------|
B|------------------------------------------------------------------------------------------------------1-----|
G|-0----------------------------------------------------------------------------------------------------------|
D|-------------------------------------------------------------------------------------------------------------|
A|-------------------------------------------------------------------------------------------------------------|
E|-------------------------------------------------------------------------------------------------------------|


e|--1--0------1--0-------1---0-------1--0------1---0-------1---0------1---0--------0h1--0--------|
B|---------1----------1------------1----------1-----------1-----------1------------1---------------1---|
G|----------------------------------------------------------------------------------------------------------|
D|----------------------------------------------------------------------------------------------------------|
A|----------------------------------------------------------------------------------------------------------|
E|----------------------------------------------------------------------------------------------------------|