#1
It would be great if someone could tab this song out. Just the rhythm guitar is needed but a full tab would be sweet too.

Unofficial Music Video:
http://www.youtube.com/watch?v=7vxSm-wFSvA&feature=related

Decent look at how they play it, not as good quality sound though:
http://www.youtube.com/watch?v=srxhVfMT2xY

Much thanks to anyone that can do that for me
TO ALL MY KILLERS AND MY HUNDRED DOLLAR BILLERS...
...TO EMO KIDS THAT GOT TOO MANY FEELINGS
#2
Standard 1/2 step down
* strum chord


e|-----------------------------------------------------------------|
B|--------3----3---------3----3---------0-------------0--------|
G|-----------0--------------0---------------0-------------0-----|
D|----------------------------------------------------------------|(repeat many times)
A|---2--------------2----------------3------------3-------------|
E|----------------------------------------------------------------|


e|----------------------------------------------------------------------------------------------|
B|--------3------------0-------------7------------8-----8----------8-----8--------8----8--|
G|------------0-----------0-------------0------------0-----------------0--------------0-----|
D|---------------------------------------------------------------------------------------------|
A|---2------------3------------5-------------7----------------7---------------7-------------|
E|----------------------------------------------------------------------------------------------|

e|--7------------------------------------------------------------------------|
B|--7-----------------10-----10------10-----10----------10-----10-----|
G|--7----------------------0----------------0-------------------0----------|
D|--9------------------------------------------------------------------------|
A|-10------------9------------------9------------------9-------------------|
E|----------------------------------------------------------------------------|
*

e|--7-------------------------------------------------------------------------------|
B|--7-----------8-----8---------8-----8--------8------8-------8-----8-----------|
G|--7--------------0----------------0---------------0--------------0--------------|
D|--9-------------------------------------------------------------------------------|
A|--10----7---------------7---------------7----------------7---------------------|
E|-----------------------------------------------------------------------------------|
*

(1)
e|---------------------------------------------------------------------------------------------------|
B|--------7-----7----------7----7--------5-----5-------5-----5------5------5-------5-----5----|
G|-----------0----------------0--------------0--------------0-------------0--------------0-------|
D|---------------------------------------------------------------------------------------------------|
A|---5----------------5--------------3--------------3--------------3--------------3---------------|
E|---------------------------------------------------------------------------------------------------|

e|-------------------------------------------------------------------------|
B|--------4-----4--------4-----4--------4-----4---------4/6-----------|
G|-----------0---------------0--------------0----------------------------|
D|-------------------------------------------------------------------------|
A|---3--------------3---------------3----------------3-------------------|
E|-------------------------------------------------------------------------|

e|-----------------------------------------------------------------------------------------------------0-------|
B|------3-----3---------3------3--------2------2--------2----2--------3----3--------3------3----2-------|
G|---------0-----------------0---------------0---------------0-------------0---------------0-------0-------|
D|-----------------------------------------------------------------------------------------------------2-------|
A|--2----------------2---------------0----------------0------------2-------------2-----------------0--------|
E|--------------------------------------------------------------------------------------------------------------

then he repeats the verse but I guess he starts strumming, the first 2 chords: G/B: x2x03x and Cmaj7: x32000and the rest of the chords strum just 3 strings (5th,3rd,2nd) and stop before (1)

and then strum Gmaj7: x10 9 7 7 7

after this he plays G/B and Cmaj7 16 times

and then strum: Gmaj7 Cmaj7 (4)

outro:
e|-------------------------------------------------------------------------------------------------------|
B|--------3------------0-------------7------------8-----8----------8-----8--------8----8-----8----8|
G|------------0-----------0-------------0------------0-----------------0--------------0----------0---|
D|-------------------------------------------------------------------------------------------------------|
A|---2------------3------------5-------------7----------------7---------------7------------7---------|
E|-------------------------------------------------------------------------------------------------------|

e|---------------------------------------------------------------------------------------------------|
B|--------7-----7----------7----7--------5-----5-------5-----5------5------5-------5-----5----|
G|-----------0----------------0--------------0--------------0-------------0--------------0-------|
D|---------------------------------------------------------------------------------------------------|
A|---5----------------5--------------3--------------3--------------3--------------3---------------|
E|---------------------------------------------------------------------------------------------------|


e|-------------------------------------------------------------------------|
B|--------4-----4--------4-----4--------4-----4---------4/6-----------|
G|-----------0---------------0--------------0----------------------------|
D|-------------------------------------------------------------------------|
A|---3--------------3---------------3----------------3-------------------|
E|-------------------------------------------------------------------------|


e|-------------------------------------------------------------------------------------------------------0-------|
B|------3-----3---------3------3--------2------2--------2----2--------3----3--------3------3------2-------|
G|---------0-----------------0---------------0---------------0-------------0---------------0---------0-------|
D|-------------------------------------------------------------------------------------------------------2-------|
A|--2----------------2---------------0----------------0------------2-------------2-------------------0--------|
E|--------------------------------------------------------------------------------------------------------------
Last edited by crmrz at Aug 28, 2008,