#1
okay there's this part in helicopter which is really hard to hear so I can't tab it myself and all the tabs don't seem to feel right I was wondering if anyone can tab the part starting at 0:34 to 0:47 it's the high guitar played by russel lissack. if someone can tab that i'd be really appreciative
#2
This part sounds accurate to me. Learn the part slowly and build up because he jumps around it quite quickly and it doesn't sound right at first but the more you play it the better it sounds.

e|-------------------------------|
B|-------7-------10--7----7-7-7--|
G|-7-9-7-----7----------9---9-7--|
D|---------9---9-----------------|
A|-------------------------------|
E|-------------------------------|

e|----------------------7-10-7---|
B|---------------8-8-7---------7-|
G|-7-7-7-7---7-------------------|
D|---------9---9-----------------|
A|-------------------------------|
E|-------------------------------|

e|-------------------------------|
B|-------7-------10--7----7-7-7--|
G|-7-9-7-----7----------9---9-7--|
D|---------9---9-----------------|
A|-------------------------------|
E|-------------------------------|

e|-------------------------------|
B|---------------8-8-7--7--7-----|
G|-7-7-7-7---7----------7--9-----|
D|---------9---9-----------------|
A|-------------------------------|
E|-------------------------------|


Also, from what I remember of that song, if you disconnect one of your speakers you can separate the lead from the rhythm quite a lot. I can't remember which speaker it is but the guitars are panned to opposite sides.
Quote by Mia (Pulp Fiction)
Why do we feel it's necessary to yak about bullsh*t in order to be comfortable?

That's when you know you found somebody special. When you can just shut the f*ck up for a minute, and comfortably share silence.

RateYourMusic