#1
I'm completely self taught mostly just by downloading tabs online and messing around till I get it to sound decent. I've been playing for about a year now and I must admit, it probably doesn't sound like I've been playing that long. I'm looking into lessons at the moment but given my packed schedule it's tough to find any during the hours I am available.

When I play things like these:

E-----------------------------------------------------------------
B-----------------------------------------------------------------
G-----------------------------------------------------------------
D---0--3-0------0--6--0--6--0----0--6--0--6--0--------------------
A---0--3-0------0--6--0--6--0----0--6--0--6--0--------------------
D---0--3-0------0--6--0--6--0----0--6--0--6--0---Play this 4x-----

Beautiful People by Marilyn Manson

E-----------------------------------------------------------|
B-----------------------------------------------------------|
G-----------------------------------------------------------|
D-3/6-6--xxx--6/8-8--xxx--11\10-10--xxx--10\8-8--xxx--------|
A-3/6-6--xxx--6/8-8--xxx--11\10-10--xxx--10\8-8--xxx--------|
D-3/6-6--xxx--6/8-8--xxx--11\10-10--xxx--10\8-8--xxx--------|

Out of my Way by Seether


Or many other things that are similar, I always play then with just my index finger barring those three strings. Is this bad? Will this hurt me in the long run? I guess I could see that being possible since I'm not getting in the habit of moving my fingers around quickly and precisely.
Andy Fox
Hard rock guitarist
I play a Jackson DK-2 and an Ibanez RG through a Peavey 6505+ stack
#2
Nothing wrong with using the index to barre in drop D - it gives you a lot more freedom for your other fingers.
#3
The recommended way is that you barre your index finger because it leaves your other fingers free to do fills or whatever.
...
#4
Quote by bartdevil_metal
The recommended way is that you barre your index finger because it leaves your other fingers free to do fills or whatever.


+1
It's perfectly fine.
Sunn O))):
Quote by Doppelgänger
You could always just sleep beside your refrigerator.

Guitar:
- Ibanez S670FM w/ JB
- Fender 'Lite Ash' Stratocaster
- Fender '72 Deluxe Telecaster
- Arbiter LP Jr. Doublecut
Amp:
- Laney VC15

'72 Tele Appreciation Group
RIP DIO
#6
I don't see why it is a problem or should be, unless you are gonna thrash, then you can bar with all 4 fingers for something like

E----------------------------------------------
B---------------------------------------------
G---------------------------------------------
D--------------------------------------------
A---0--3-5------1--6--3--6--0----0--5--
D---0--3-5------1--6--3--6--0----0--5--
#7
It honestly depends. On a song where you have to throw in fills as previously stated its ok to use only your index finger, however if you're only playing the basic chords you should learn to bar with your other fingers as well to enhance your playing and strengthen all of your fingers.
#8
I use my middle finger to barre those chords... But it's probably ME that's doing it the wrong way :p
#9
Barring with one finger is the most used and efficient way for such riffs. You could try out let's say, barring with your ring finger when you gotta reach further frets(3 to 6, in your example, the 3's being your index and the 6's being your ring finger). That could help you with your ring finger's strenght, but there's nothing wrong with the way you're doing it, really.
Quote by MH400
a girl on the interwebz?

You have 2 options.

1. Tits.
2. GTFO.