#1
ok, i know this is a little obscure, but I'd really love any tab or even chords for this song as it's one of the first songs that made me want to play guitar.
Any help is greatly appreciated, thanks.
Quote by FunkasPuck
i swear, we are like the small gloucestershire village of the internet: we try god bless us, but we are about 5 years behind the rest of the world.
#2
even an intro or a section of the song would be beyond fantastic for me
Quote by FunkasPuck
i swear, we are like the small gloucestershire village of the internet: we try god bless us, but we are about 5 years behind the rest of the world.
#3
Didn't tab the bridge riff, neither the keyboard outro, but the rest is here, man...remember, the last chorus is different than the first two...

Chords:

Eb7add9:x6567x


intro:
---B7------------E-----------------Eb7add9--Ab7-----------------------A7
e|-------------------------------------------------------------------------------------------|
B|-------7---7-------------9--------------7------------------------------------------------|
G|-------8--8-----------------9-----------6------4h5----5----5----5----5-6------------|
D|-------7--7---------9---------9--------5------4--------4----4---4----4--5---5-------|
A|-----------------7--------------------6---------6--------6----6---6----6--7-------7---|
E|---7---------------------------------------------4--------4---4----4----4--5-----------|

-----------------------------------B
e|----------------------------------------------|
B|----------------------------------------------|
G|--------4---6^6^vp4--6-----4p6h4-----|
D|---5/6-----------------------4--------------|
A|----------------------------------------------|
E|----------------------------------------------|

VERSE: B7 -E -Eb7add9 -Ab7 -A7 -B -A7 -B (4)

CHORUS: D -A -E -D -A -E -F -C -G -A -B (2) -A -B

verse, chorus..

BRIDGE: E -A7 (3) E

3rd CHORUS: D -A -E -D -A -E -F -C -Ab -G -A (2) G
e|---------------------------------0-----0------|
B|---------------------------------0h2--0------|
G|----------2------------------------------------| (2)
D|---0--4---------------2----------------------|
A|---------------0---4-------2-----------------|
E|----------------------------0-----------------|

e|---------------------------------------------------------------|
B|---------1-----------------------------------------------------|
G|-----2--------------0-------5--5----------------------5-----|
D|--3------------2--------6----------5--5----5--5-----5-----|
A|-------------3-----------6----------5--5----5--5-----3-----|
E|--------------------------4----------3--3----3--3-----------|

e|-----------------------0----0------|
B|----3-----------------0h2-0------|
G|----2-----2------------------------|
D|----0-----2----2------------------|
A|-----------0----2-------------------|
E|-----------------0-------------------|

e|---------------------------------0-----0------|
B|---------------------------------0h2--0------|
G|----------2------------------------------------|
D|---0--4---------------2----------------------|
A|---------------0---4-------2-----------------|
E|----------------------------0-----------------|

e|---------------------------------------------------0----------|
B|---------------------------------------------------1----------|
G|---------------------0---------5--5----4--4-----0----------|
D|---3-------------2-------6----6--6----5--5-----2----------|
A|-------0h3---3----------6----6--6----5--5-----3----------|
E|--------------------------4----4--4----3--3-----------------|
Last edited by crmrz at Aug 30, 2008,
#4
thanks so much man
Quote by FunkasPuck
i swear, we are like the small gloucestershire village of the internet: we try god bless us, but we are about 5 years behind the rest of the world.