#1
I have some guitar lessons tomorrow and my teacher asked to bring anything song I wanted but it cant be tabs but chords are fine, so could someone do me a favor and chord Antonia for me? Please and thanks.
#2
If you are fine with some barre chords, you can play this:
(with capo on 2nd fret)

Bsus4-B7: x24252 -x24242

Verse: A -E -A -E -A -E -D -A
A -E -A -E -A -E -D -A -Am -Bsus4 -B7

Chorus: E -Abm -Dbm -B (6) -D -A

There are some variations later on the song, but those are the chords...although I don't know if you're allowed to play power chords; if yes, I tabbed them for you (figure out the strumming for each power chord)

standard tuning (no capo)

verse:
e|------------------------------------------------------------|
B|------------------------------------------------------------|
G|-------------------------------------------------------------|
D|--------------------------------------------------9----------|(2)
A|----9------4------9------4-------9------4------7-----9---|
E|----7------2------7------2-------7------2-------------7---|

e|----------------------------------------------------------------------------------|
B|----------------------------------------------------------------------------------|
G|----------------------------------------------------------------------------------|
D|--------------------------------------------------9-----9-----9----9-----8-----|
A|----9------4------9------4-------9------4------7-----6-----5----x-----x-----|
E|----7------2------7------2-------7------2------------------------9------9-----|

chorus:
e|----------------------------
B|----------------------------
G|---------------------------- (6x)
D|----------------8-----6----
A|--4------8-----6-----4----
E|--2------6-----------------

e---------------------|
B| ------------------|
G|-------------------|
D|----9-------------|
A|----7----9-------|
E|-- -------7-------|
Last edited by crmrz at Aug 29, 2008,