#1
So i'm working on Ted Nugent's Stranglehold and I'm having trouble figuring out how to play this riff near the beginning of the solo. Here is the portion of the tab, buts its probably easier to read if you look at the whole tab on the site and find this part. I am not convinced it is completely accurate after watching some videos of the nuge himself playing it. I lose it where the thirty-second notes start. Anyone out ther an expert on this song?


E S S E E E E S S T +T +S S T
T
|--------------------------------------------------------------------------5p0---|
|-10--------8-----------8----10------10------10------5---5-----------------------|
|-12b14----10b12-10b12-10b12-12b14---12b14---12b14---7b9-7b9-7b9r(7)b9-(7)-----7-|
|--------------------------------------------------------------------------------|
|--------------------------------------------------------------------------------|
|--------------------------------------------------------------------------------|


T S T T T S S. T T T T T T T T T T T S S S E
|----------5p0-------------7------7--------------------------------------||
|-5------------5-5-----------8-8-----10-10-10-----------20-----20-20\---o||
|---7b9-------------5--7s9------------------------17-19-19b21==19-19r\---||
|---------------------------------------------/19------------------------||
|-----------------------------------------------------------------------o||
|------------------------------------------------------------------------||