#1
I've been trying to find out what this song is, I've googled the **** out of it, but nada.

It's used on the Virgin Media 1 Star Trek advert, "The Best of Borg". And i think they also use it in Scrapheap Challenge and The Gadget Show, but I've never been able to find out what it is.

Doe's anyone know what this elusive little bastard is called?

Goes like this (from what I can remember)

S S S S E. E S S S S E. S S S S E. E S S S S E.
E||-----------------------------|-----------------------------|
B||-----------------------------|-----------------------------|
G||-----------------------------|-----------------------------|
D||-----------------------------|-----------------------------|
A||--7-5-7-5-----7--5-7-5-------|--7-5-7-5-----7--5-7-5-------|
E||----------0------------------|----------0------------------|


S S S S E. E S S S S E. S S S S E. E S S S S E.
-----------------------------|-----------------------------|------||
-----------------------------|-----------------------------|------||
-----------------------------|-----------------------------|------||
-----------------------------|-----------------------------|------||
--7-5-7-5-----7--5-7-5-------|--7-5-7-5-----7--5-7-5-------|------||
----------0------------0-----|----------0------------0-----|------||

And the tab doesnt even resemble I Cum Blood.

And it's better than I Cum Blood.

*awaits I Cum Blood Responses*

Cheers!
#2
It's Smoke On The Water.

Duh!
Quote by Teh Forest King
A kid took a fetal pig during pig dissection, put a napkin on it as a cape, wrote "super pig" on it, then threw it out the window onto the greenhouse below, yelling "super pig, blast off!". He failed the pig lab
#3
I think it might be I Cum Blood
Fight the machine.


Quote by slaveofsatan
She lives in the next town!

You must ride your family cow over there and make sweet small town love. Then make sure she isn't the town bicycle.



Ressort (Click to Help Ressort!)
#4
'The Four Horsemen' or the superior 'Mechanix'
My Gear

Fender Deluxe Players Stratocaster
Marshall DSL 50 with 1960A