#1
http://www.youtube.com/watch?v=ZTN3gKcT1CI

OK, so he says that the chords are A minor, B minor 7 flat 5, and the 2nd inversion of E major.

Well, I know A minor.

I've tried googling the other chords to no avail, and my theoretical knowledge doesn't extend this far yet, so could someone help me figure out this lick? Thanks in advance.
I'm looking for a tab of The Marshall Plan, by Blue Oyster Cult, and of Mario Minor, by Powerglove. If you have one please PM me.
#2
Ok, B minor 7 flat 5

Start with a regular B minor chord - root, minor 3rd, perfect 5th. B, D, F#
Add the minor 7th. B, D, F#, A
Flatten the 5th. B, D, F, A

2nd inversion of E major.
Regular E major: root, major third, perfect fifth: E, G#, B
An inversion means you start it on one of these notes other than the root, instead of the root.
I think 2nd inversion means you start it on the fifth, but I'm not sure.
#3
Okay.
I'll see what I can get out of that...
I'm looking for a tab of The Marshall Plan, by Blue Oyster Cult, and of Mario Minor, by Powerglove. If you have one please PM me.
#4
Quote by se012101
Ok, B minor 7 flat 5

Start with a regular B minor chord - root, minor 3rd, perfect 5th. B, D, F#
Add the minor 7th. B, D, F#, A
Flatten the 5th. B, D, F, A

2nd inversion of E major.
Regular E major: root, major third, perfect fifth: E, G#, B
An inversion means you start it on one of these notes other than the root, instead of the root.
I think 2nd inversion means you start it on the fifth, but I'm not sure.


Isnt A the major 7th?

Edit: no its A. *facepalm*
#5
at a quick glance it looks like he's playing something like this:


      |--3--|  |--3--|  |--3--|  |--3--|  |--3--|  |--3--|  |--3--|  |--3--|  
      S  S  S  S  S  S  S  S  S  S  S  S  S  S  S  S  S  S  S  S  S  S  S  S  
E||-----------------12-17-12----------------------------13-17-13-------------|
B||--------------13----------13----------------------15----------15----------|
G||-----------14----------------14----------------14----------------14-------|
D||--------14----------------------14----------15----------------------15----|
A||--12-15----------------------------15-14-17----------------------------17-|
E||--------------------------------------------------------------------------|
 
 
   |--3--|  |--3--|  |--3--|  |--3--|  |--3--|  |--3--|  |--3--|  |--3--|   
   S  S  S  S  S  S  S  S  S  S  S  S  S  S  S  S  S  S  S  S  S  S  S  S   
-----------------12-17-12----------------------------12-16-12-------------||
--------------13----------13----------------------12----------12----------||
-----------14----------------14----------------13----------------13-------||
--------14----------------------14----------14----------------------14----||
--12-15----------------------------15-11-14----------------------------14-||
--------------------------------------------------------------------------||
#6
There is a tab on this website under Band Name Symphony X, it is a Guitar Pro Tab.
#7
There are a metric ****ton of Symphony X tabs, you're gonna have to be more specific.
I'm looking for a tab of The Marshall Plan, by Blue Oyster Cult, and of Mario Minor, by Powerglove. If you have one please PM me.