#1
i put up a tab for the hold steady, a song called massive nights, that i know is near enough right, was waiting for that warm 5 star feeling, then this f**k comes along and rates it 1 star and tells me it should be played worse that how i tabbed it, and it really f**ks me off. this happened to anyone else? take a look at the tab and comment to see what i mean
the pic theif strikes again

Member #1 of im not a member of anything, and i dont wanna be. PM me to join
#3
^^^the pit? have fun there.

speaking of immature teenagers, this kinda stuff happens. sucks, i know, but there's not much we can do except ignore them until they go away.
UG POKER!
Quote by WyvernOmega

TL;DR: Saw a girl at Wal-Mart, she started feeling me up, I jizzed in my pants.

Shit, I'm so pathetic.

[quote="'[BurnTheDusk"]']I agree, tone does sound better the closer your genitals are to the ground.

Crabcore?

UNACCEPTABLE
#4
i can complain, just tell me where!
the pic theif strikes again

Member #1 of im not a member of anything, and i dont wanna be. PM me to join
#6
yea idk why m,y The qQueen Is Dead tabgh got rejected ...here check it out for yourself all u smiths fans

Bridge/Intro
|-------------------------------------------------------------------|
|---------------------------------------------------------2---2-----|
|-----5---------------/12---12----------6-------6---------------0-1-|
|-3-3---3---3-2-3-5------------12-0-4-----4---4---4-3---3-----------|

Main Riff
|-----2-----4-----2-----4-4-------|-----2-----4-----2-----4-4-------|
|---------------------------------|---------------------------------|
|-2-2---2-2---2-2---2-2-------0-1-|-2-2---2-2---2-2---2-2-------0-1-|
|---------------------------2-----|---------------------------2-----|


|-----2-----4-----2-----4-4--------|--------------------------------|
|------------------------------2-1-|-0-----0-------0---2------------|
|-2-2---2-2---2-2---2-2-----2------|-------------0---0---2--0-------|
|----------------------------------|---------------------------4--3-|


|-----2-----4-----2-----4-------8-|-----2-----4-----2-----4-4-------|
|-----------------------------9---|---------------------------------|
|-2-2---2-2---2-2---2-2-----2-----|-2-2---2-2---2-2---2-2-------0-1-|
|---------------------------------|---------------------------2-----|
u can slide up to B or just hit it idk

|-----2-----4-----2-----4-4--------|--------------------------------|
|------------------------------2-1-|-0-----0-------0---2------------|
|-2-2---2-2---2-2---2-2-----2------|-------------0---0---2--0-------|
|----------------------------------|---------------------------4--3-|
#8
just gave you five stars, now happy?
Quote by Carmel
I can't believe you are whoring yourself out like that.

ಠ_ಠ
#9
Quote by Derrikb
yea idk why m,y The qQueen Is Dead tabgh got rejected ...here check it out for yourself all u smiths fans


Bridge/Intro
|-------------------------------------------------------------------|
|---------------------------------------------------------2---2-----|
|-----5---------------/12---12----------6-------6---------------0-1-|
|-3-3---3---3-2-3-5------------12-0-4-----4---4---4-3---3-----------|

Main Riff
|-----2-----4-----2-----4-4-------|-----2-----4-----2-----4-4-------|
|---------------------------------|---------------------------------|
|-2-2---2-2---2-2---2-2-------0-1-|-2-2---2-2---2-2---2-2-------0-1-|
|---------------------------2-----|---------------------------2-----|


|-----2-----4-----2-----4-4--------|--------------------------------|
|------------------------------2-1-|-0-----0-------0---2------------|
|-2-2---2-2---2-2---2-2-----2------|-------------0---0---2--0-------|
|----------------------------------|---------------------------4--3-|


|-----2-----4-----2-----4-------8-|-----2-----4-----2-----4-4-------|
|-----------------------------9---|---------------------------------|
|-2-2---2-2---2-2---2-2-----2-----|-2-2---2-2---2-2---2-2-------0-1-|
|---------------------------------|---------------------------2-----|
u can slide up to B or just hit it idk

|-----2-----4-----2-----4-4--------|--------------------------------|
|------------------------------2-1-|-0-----0-------0---2------------|
|-2-2---2-2---2-2---2-2-----2------|-------------0---0---2--0-------|
|----------------------------------|---------------------------4--3-|

Fixed
Quote by guitarhero_764
I think you need to stop caring what people think about it. I stayed home all day today and masturbated like 5 times. Fucking blast.

Ibanez ATK300 ◈ Sansamp VT Bass ◈ EHX Nano Small Stone ◈ Hartke LH500 ◈ Ashdown/Celestion 115