#1
Hi again guys, I need any help with this song by Five Times August, it's called Here, if anyone can help by finding out any chords or tabs please contribute T_T

here is the link, the intro is sort long, but the song starts at :30
http://www.youtube.com/watch?v=qI0MGKsSUrE

Also, anyone know what tuning it's in?

Thank you
#2
Tuning: DADGAd
I didn't tab the strum pattern.....the numbers in parenthesis are optional


Intro and verse:
d|------0----------------------------------0-------0-----|
A|------0----------------------------------0-------0-----|
G|------2----------2h4--2---------------0-------0----|
D|------4---------------------4-----------4-------4----|
A|-----(0)--------------------------------(2)-----(2)---|
D|--0-------0------------------------2--------2--------|

D|-------0-----0------0-----------0-------0---------------|
A|-------0-----0------0-----------0-------0---------------|
G|-------0-----0------0-----------0-------0---------------|
D|-------0-----0------0-----------0-------0---------------|
A|------(5)---(5)----(2)---0h2----------(2)---------------|
D|---5------4------2-------------------2------------------|


Bridge?:

D|--0---0-------0----0------0----0-----0--------0------0----0------0----0---------0-----0-------0--0-|
A|--0---0-------0----0------0-----0----0--------0------0----0------0----0---------0-----0-------0---0-|
G|--6---4-------6----7------0-----0----0--------0------0----0------x----0---------0-----0-------0---0-|
D|--0---0-------0----0------0-----0----4---4/5-----0-------0------4----4----4/5-----4----0--------0-|
A|--5---5-------7----7------2-----5----5---------------------2------5----5-----------------------------5-|
D|--5---5-------7----7------2-----4----5---------------------2------4----5----------------------------5-|
Last edited by crmrz at Sep 1, 2008,