#1
I couldn't find a tab for this, so did it myself:

e|------------------------------
B|--/19-18-15---15h17h15-------
G|------------17--------------------
D|----------------------------------
A|---------------------------------
E|----------------------------------

e|--------------------------------------
B|--/19-18-15s13------------------------
G|--------------14~~~~~~~~---
D|--------------------------------------
A|--------------------------------------
E|---------------------------------------

e|-----------------------------------------
B|--/19-18-15---------------------------
G|-----------17b 17b17b-17b-14-----
D|-------------------(bend/tremolo to feel)
A|--------------------------------------
E|---------------------------------------

e|---------------------------------------
B|--/19-18-15---19p18p15-19p18p15-19p18p15-19p18p15-21---
G|-----------------------------------
D|--------------------------------------
A|--------------------------------------
E|---------------------------------------


I think that's right, have fun!
#3
I've only seen the chord versions...none ive seen have the saxophone hook, which i wanted to play for a bit of fun.