#1
I'm trying to tab out, Selkies: The Endless Obsession solo, by Between The Buried and Me, none of the tabs here seem to be right and I don't have guitar pro to check out them tabs. I've got most of the slow parts tabbed and I'm pretty sure they're 100% correct. However can someone help me with the faster parts? Here's what I have so far. I don't usually tab stuff so I'm not good at it but I'm trying


C#|-------------------------------------------------------------|
G#|-12br-8---8h10~-12-12-8-8-------8-8/10----12brbr---10-12-----|
E |--------9-----------------5-5/7--------10--------9-----------|
B |-------------------------------------------------------------|
F#|-------------------------------------------------------------|
C#|-------------------------------------------------------------|

C#|-------------------------------------------------------------|
G#|-12br-8---8h10-8h10-12-12-8-8-------8-8/10----12brbr---10-12-|
E |--------9---------------------5-5/7--------10--------9-------|
B |-------------------------------------------------------------|
F#|-------------------------------------------------------------|
C#|-------------------------------------------------------------|

                                   _________________________
                                  | Need    This     Fill   |
C#|-------------------------------------------------------------|
G#|-13--11--13br-15--18-16br------------------------------------|
E |--------------------------15~--------------------------------|
B |-------------------------------------------------------------|
F#|-------------------------------------------------------------|
C#|-------------------------------------------------------------|

    _______________                _______________
   |Need this sweep|              |Need this sweep|
C#|------------------12br-p10h12~-------------------12br-p10h12~-|
G#|--------------------------------------------------------------|
E |--------------------------------------------------------------|
B |--------------------------------------------------------------|
F#|--------------------------------------------------------------|
C#|--------------------------------------------------------------|

C#|-10-----------------------------------------------------------|
G#|-----13-12br-p10h12----10-12-13-13-15-15-17-18-17-------------|
E |---------------------9----------------------------17----------|
B |-----------------------------------------------------19-------|
F#|--------------------------------------------------------------|
C#|--------------------------------------------------------------|

                                      __________________
    Starts something like this?      |This whole fill :[|
C#|-------------17h20p17-----------------------------------------|
G#|----------18--------------------------------------------------|
E |-------17-----------------------------------------------------|
B |----19--------------------------------------------------------|
F#|-20-----------------------------------------------------------|
C#|--------------------------------------------------------------|

    This fast part seems to be pretty accurate in one tab so I 
    just kinda mess around with that
C#|--------------------------------------------------------------|
G#|--------------------------------------------------------------|
E |--------------------------------------------------------------|
B |--------------------------------------------------------------|
F#|--------------------------------------------------------------|
C#|--------------------------------------------------------------|


                                             
C#|-------------------------------------------------15br----------|
G#|-----8-------8--13-12br----------------15--13/12------13/12/13-|
E |---5---7-7h9------------12----------12-------------------------|
B |-5-------------------------12-12h14----------------------------|
F#|---------------------------------------------------------------|
C#|---------------------------------------------------------------|

      Another fill I surprisingly can't figure out..
C#|--------------------------------------------------------------|
G#|--------------------------------------------------------------|
E |--------------------------------------------------------------|
B |--------------------------------------------------------------|
F#|--------------------------------------------------------------|
C#|--------------------------------------------------------------|


     And last I play something like this before the sweeps
C#|-19-17-15-------------------------------------------------------------------------|
G#|----------18-17-15-17-18-17-15----------------------------------------------------|
E |-------------------------------17-16-14-16-17-16-14-------------------------------|
B |----------------------------------------------------17-15-14-15-17-15-14----------|
F#|-------------------------------------------------------------------------17-15-14-|
C#|----------------------------------------------------------------------------------|

  
I won't post all the sweeps cause I'm pretty sure they're all right.


If anybody is 100% sure how to play any of these parts please post I'll really appreciate it, I've never really tabbed a song before so I'm trying to do this one good cause none of the tabs sounded right.

One last thing, the very last sweep after the:

C#|-20-20-20-17-17-17-12-12-12----------------------------------------------|
G#|----------------------------13-13-13-------------------------------------|
E |-------------------------------------14-14-14----------------------------|
B |----------------------------------------------14-14-14-------------------|
F#|-------------------------------------------------------15-15-15----------|
C#|----------------------------------------------------------------17-17-17-|


Is anyone sure what that sweep is? Whatever I play I can never make it sound right. I even watch where Paul plays it and I just cannot get that sweep right?

Any help is really really appreciated, thanks UG
Last edited by GuitarKid61791 at Sep 4, 2008,