#1
there is another thread in here somewhere else on wanting the tab for this song...everyone and everything has been tellin me that Tool does this song, but found out for sure its by ashe...dont see it listed in the tabs yet, just wonderin if someone would be so nice to tab it for me??

Thanks,
Chris
#2
---------------------
---------------------
---------------------
--9--9h10---------
7----------10--9--5
----------------------

or

---------------------------------------
---------------------------------------
---------------------------------------
---------------------------------------
---------------------------------------
12--19--19h20--17--15--14--10


---------------------
---------------------
---------------------
5-----4-----3-----2
5-----4-----3-----2
3-----2-----1-----0

hope it helps
Last edited by shadylady078 at Feb 1, 2012,