#1
I'm trying to learn the solo from "Whole Lotta Love" by Led Zeppelin but, I'm having trouble making the part down near the second fret sound right... any tips would be greatly appreciated. I think it goes something like this:

e-|-----------------------------------------------------------|
B-|-------3--------------------------------------------------|
G-|--2/4---2p0-0--2p0-0-2p0---------------------------|
D-|---------------------------------2p0h2p0---------------|
A-|---------------------------------------------2p0---------|
E-|-----------------------------------------------------------|
“Don't gain the world and lose your soul, wisdom is better than silver or gold.” - Bob Marley

"Maybe this world is another planet's hell" - Aldous Huxley
#2
Hey that was pretty close! Did you transcribe yourself?

Here's what I get:


e-|-----------------------------------------------|
B-|------3----------------------------------------|
G-|--2/4---4/2-0--2p0-0--2p0----------------------|
D-|---------------------------2p0-2p0-------------|
A-|-----------------------------------2p0---------|
E-|-----------------------------------------------|


Transcribed w/ help of Amazing Slow Downer
http://www.ronimusic.com
#3
yeah i transcribed it myself. thanks for the help. i f*cking love this solo.
“Don't gain the world and lose your soul, wisdom is better than silver or gold.” - Bob Marley

"Maybe this world is another planet's hell" - Aldous Huxley