#2
Try the Tab Talk forum.
WHY IS EVERYONE IN THE PIT A FUCKING METALCORE KID
#3


E||--5---------------5-7-5-7-5---5-8-7-8-7-5---|
B||----8-6-5---5-6-8-----------8-------------8-|
G||----------7---------------------------------|
D||--------------------------------------------|
A||--------------------------------------------|
E||--------------------------------------------|
 
         
--9--------------------9-12-9-12-9----9-14-12-14-12-9----|----||
---------------------------------------------------------|----||
----14-11-9----9-11-14-------------14-----------------14-|----||
---------------------------------------------------------|----||
------------12-------------------------------------------|----||
---------------------------------------------------------|----||