#1
Hey UG,

My band has chosen to do "Showdown" by boy kill boy and i cant find tabs anywhere so i was wondering could you nice folk maybe tab it out for me.

Cheers
Quote by Ichimaru
Pics? I can tell if someone has AIDS just by looking.


Quote by xHuffyx
BTW, what's metal and full of holes?

Dimebag Darrell.
#3
Anyone?
Quote by Ichimaru
Pics? I can tell if someone has AIDS just by looking.


Quote by xHuffyx
BTW, what's metal and full of holes?

Dimebag Darrell.
#4
this is my version, at least sound very similar...

Intro and 1rst part of verse
e|--------------------------------------------|
B|--------------------------------------------|
G|--------------------6-------------------6--|
D|----7---7-7-7-7-------7---7-7-7-7-----|
A|----x---x-x-x-x--------x---x-x--x-x-----|
E|----7---7-7-7-7-------7--7--7-7-7-----|

e|--------------------------------------------|
B|--------------------------------------------|
G|--------------------6----------------------|
D|----7---7-7-7-7-------7---7-7-7-7p6--|
A|----x---x-x-x-x--------x---x-x--x-x-----|
E|----7---7-7-7-7-------7--7--7-7-7-----|

e|----------------------------------------------------------------------------------|
B|----------------------------------------------------------------------------------|
G|---4---4-4-4p2--4--4-4-4p2-----4-4-4-4p2----4---4-4--4p2-------------|
D|---2---2-2-2-----2--2-2-2--------2--2-2-2-------2---2-2-2-----------------|
A|---x----x-x-x-----x---x-x--x-------x--x-x-x--------x---x-x-x-----------------|
E|---2---2-2-2-----2---2-2-2-------2--2-2-2-------2---2-2-2----------------|


this is the bass for the intro..
G|--------------------------------------------------------|
D|--------------------------------------------------------|
A|---------------------------------------------------------|
E|---7----7-7-7-7-5-----2--2-2-2----------------------|


this next part every chord has to be strummed..

e|------------------------------------------------------|
B|------------------------------------------------------|
G|---2-----7-----2----7----2----7----7-----6-------|
D|---0-----7-----0----7----0----7----7-----7-------|
A|---x-----x------x----x----x----x----0-----0-------|
E|---3-----7-----3----7----3----7-------------------|


e|-----------------------------------|
B|-----------------------------------|
G|----7-----4------4------2-------|
D|----7-----4------4------2-------|
A|----x------x------x------x-------|
E|----7-----4------3------2-------|

bridge (along with a B note )
e|---------------------|
B|---------------------|
G|----6-6-------------| repeat many times
D|----7-7---7--------|
A|----x-x----x--------|
E|----7-7----7--------|
Last edited by crmrz at Sep 6, 2008,
#5
Thanks a bunch dude seriously cheers for that
Quote by Ichimaru
Pics? I can tell if someone has AIDS just by looking.


Quote by xHuffyx
BTW, what's metal and full of holes?

Dimebag Darrell.