#2
This song doesn't have a pattern...so I hope you don't get confused with so many changes..I tabbed below the intro and a little bit of the arpeggio, just to give you an idea..

Tuning: DADGAD with capo on 3rd fret

Chords:

G: 000700
G(II):000200
Em7:9x0700
D: 7x7600
C: 5x5400
G/B:4x4200
Am7: 220000


Intro: G

Verse: G -Em7 -D -C -G
G -Em7 -D -C -Em7 -G/B
C -D -Em7 -D -G

G -Em7 -D -C -Em7 -G/B
C -D -Em7 -D -G

Chorus:G-C-D-Em7-D-C-D-G (2)

G(II)-Am7-C-G(II)-Am7-C-G-D

2nd verse:G -Em7 -D -C -G -G/B
C -Em7 -G/B-C-D -Em7 -D -G

Chorus:G-C-D-Em7-D-C-D-G (2)

G-D-C-G(II) (2X)
Em7-D -C -G/B
Em7-D -C -D
Em7 -Am7-C-G(II)
Em7-Am7-C-D

G(II)-Am7-C-G(II)-Am7-C-G-D -C -G(II)

INTRO:
D|--------------------------------------------|
A|---------0------------0-----------------0--|
G|--7------------7-----------7-----7--------|
D|-----0-----0-----0------0----0--------0--|
A|---------------------------------------------|
D|--0----------------------------------0-----|


VERSEjust the beginning, to show you the arpeggio)
D|---------------------------------------------------------------------------------------------------------------|
A|---------0------------0-----------0-----------0-------------0----------0----------0----------0--------0---|
G|--7------------7------------7-----------7-------------7----------6----------4----------7---------7--------|
D|-----0-----0-----0------0----0-----0-----0-----0------0----0-----7----7-----5---5-----0---0----0----0|
A|----------------------------------------------------------------------------------------------------------------|
D|--0-----------------------------------------------------9----------7----------5----------0-------------------|
Last edited by crmrz at Sep 7, 2008,