#1
Anyone know the tab or chords for this song, preferably unplugged? No GP, or PWTAB, please. Thanks if you do post how to play it. I really need it and its much obliged
Myspace.

Quote by djmay71
it wasn't 7 days, it was 5.

and you call yourself the son of catholics

Quote by hugh20
I would keep it on my mantel piece and tell my grandchildren about the day I tried to overthrow the human race with my race of tree-men.
Last edited by guitarheroII at Sep 7, 2008,
#2
standard 1/2 step down

there are some chords that have to be strummed....


intro:
e|------------------------------0----------------------------0--0-0-0---------------0----0----0----0--|
B|------------------------------0----------------------------3--3-5-3---------------3----1----3----0--|
G|------------------------------1----------------------------0--0-0-0---------------0----0----0----1--|
D|------------------------------2----------------------------4--4-4-4---------------4----2----4----2--|
A|-----------------7\-----------2---------------7\---5--5--5--5-5-5-----------7\-5----3----5----2--|
E|----4--5---7----------0----------4--5--7---------------------------4--5--7----------------------0--|


verse:
e|------------------------------0----------------------------0--0-0-0---------------0----0----0----0--|
B|------------------------------0----------------------------3--3-5-3---------------3----1----3----0--|
G|------------------------------1----------------------------0--0-0-0---------------0----0----0----1--|(2)
D|------------------------------2----------------------------4--4-4-4---------------4----2----4----2--|
A|-----------------7\-----------2---------------7\---5--5--5--5-5-5-----------7\-5----3----5----2--|
E|----4--5---7----------0----------4--5--7---------------------------4--5--7----------------------0--|


e|------------------------------0---------------------------------------|
B|------------------------------0---------------------------------------|
G|------------------------------1--------------------5---7---9--------|
D|------------------------------2--------------------5---7---9--------|
A|-----------------7\-----------2---------------7---3---5---7--------|
E|----4--5---7----------0----------4--5--7---------------------------|


e|----------------------|
B|----------------------|
G|---12-12---9-------|
D|---12-12---9-------| (4)
A|---10-10---7-------|
E|----------------------|

solo:
e|-------------------------------------------------------------------------------------------------------------|
B|------------------------8p7--7------------7--7h8--10--8--7-----7-------------------------------------|
G|--------------7--7h9-----------9--9---9-----------------------9-----9h7---7--7h9-7---------7-7h9-|
D|----7--7h9--------------------------------------------------------------------------------7-7h9---------|
A|/9-----------------------------------------------------------------------------------------------------------|
E|-------------------------------------------------------------------------------------------------------------|

outro:
e|-----------------------7---------|
B|-----------------------7---------|
G|----5---5/7----7/9--9---------| (2)
D|----5---5/7----7/9--9---------|
A|----3---3/5----5/7--7---------|
E|----------------------------------|


e|----3-------------------5----------7---------------------|
B|------3--------------5----5-------7----------------------|
G|---------5-------7-----------7----9----------------------|
D|---------------7-------------------9----------------------|
A|------------------------------------7----------------------|
E|------------------------------------------------------------|
Last edited by crmrz at Sep 7, 2008,