#1
Can someone please tab out the solo for Have a Nice Day by Bon Jovi or do a lesson for it? Yes there are tabs here on UG for it already WQITH the solo but they aren't right, at least not the solo part. Thanks in advance guys and gals.
#2
e|---------------------------------9---------------------------------12--------------------------|
B|---12^~--12vp9---12^~------12p9-----------------------------12----------------------|
G|--------------------------------------------11^vp9-----11^------------11^vp9---11~---|
D|-------------------------------------------------------------------------------------------------|
A|-------------------------------------------------------------------------------------------------|
E|-------------------------------------------------------------------------------------------------|

e|-----------------9--------------------9---------------------9--12^----14--12-12--11--11--------------|
B|-------9--12^------------9--12^--------------9--12^-------------------------------------12-12-------|
G|11^----------------11^----------------11^---------------------------------------------------------11~-|
D|---------------------------------------------------------------------------------------------------------------|
A|---------------------------------------------------------------------------------------------------------------|
E|---------------------------------------------------------------------------------------------------------------|

e|---/9--9----------------------------------------------------------|
B|---/1010---9-9-9--5---0---------------------------------------|
G|------------------------------2---1--------1h2--2---------------|
D|--------------------------------------------2-----2---------------|
A|--------------------------------------------0-----0---------------|
E|-------------------------------------------------------------------|