#1
Not sure if this is the right section...if not Im sorry.But could someone please tell me what chords these 2 are?Thanks in advance.


E------------
B-1---------
G---2-------
D---2-------
A------------
E------------

E-----------
B-----------
G-1--------
D--2--------
A--2--------
E-----------
What doesn't kill you,only makes you pissed off.
#2
Am and E major.
LIFE IS TOO SHORT NOT TO LET YOUR MIND SPREAD WINGS AND TAKE FLIGHT

Quote by KeepOnRotting
+Infinity. This dude knows good metal.