#1
guess that song

Tuning: Standard



e|---------------------------------------------|
B|---------------------------------------------|
G|---------------------------------------------| x4
D|---------------------------------------------|
A|---------------------------------------------|
E|--0-0-0-0--0-0-0-0--0-0-0-0--0-0-0-0---------|


e|--------------------------------------------------------------------|
B|--------------------------------------------------------------------|
G|--------------------------------------------------------------------|
D|--------------------------------------------------------------------| x2
A|--10----------------10----9---7-9---6---3---3-2----6---3---3-2------|
E|------0-0-0-0-0-0-0-----0---0-----0---0---0------0---0---0----------|


e|-------------------------------------------------------------|
B|-------------------------------------------------------------|
G|-------------------------------------------------------------|
D|-------------------------------------------------------------|
A|--0--0-6-0-3-2--0--0-6-0-3-2----2--2-6-2-3-2--2--2-6-2-3-2---|
E|-------------------------------------------------------------|


e|-------------------------------------------------------------|
B|-------------------------------------------------------------|
G|-------------------------------------------------------------|
D|---------------------4---------------------------------------|
A|--0--0-6-0-3-2--0--0---0-3-2----2--2-6-3-2--2--2-6-2-3-2-----|
E|-------------------------------------------------------------|


now you.
#2
Some gay band - Some gay song.

E|-----------------------------------------------------| B|-----------------------------------------------------| G|---------------------------666666666666-666666666666-| D|-666666666666-666666666666-666666666666-666666666666-| A|-666666666666-666666666666-444444444444-444444444444-| E|-444444444444-444444444444---------------------------| PM ************ ************ ************ ************
Quote by denizenz
I'll logic you right in the thyroid.

Art & Lutherie
#4
Oh yeah?

Let's raise the bar a bit.

Tuning: B standard

Dun dun dun dun dun, dun dun dun dun, dun dun dun dun dun, do, do do do do
Like podcasts? Listen to these!
BEER!
VIDEO GAMES!
MOVIES/GEEKY SHIT!

_______________________________________________
Last edited by zappp : Today at 4:20 PM. Reason: Suck on my balls, UG
#5
Quote by darkstar2466
Some gay band - Some gay song.

prefectly correct my good man
Call me Cam
Quote by DirtyMakik
I'm Han Solo, Splamron's Greedo.

Han shot first. Greedo's dead.
#6
Quote by Colgate Total
Oh yeah?

Let's raise the bar a bit.

Tuning: B standard

Dun dun dun dun dun, dun dun dun dun, dun dun dun dun dun, do, do do do do

You forgot the pinch harmonic.

Originally Posted by evening_crow
Quoting yourself is cool.


WARNING: I kill threads.
#8
Quote by Colgate Total
There is no pinch harmonic, n00b.

Oh there is... just listen closely.
Originally Posted by evening_crow
Quoting yourself is cool.


WARNING: I kill threads.
#9
e|----------------------------------------------------------------------------|
B|----------------------------------------------------------------------------|
G|----------------------------------------------------------------------------|
D|----------------------------------------------------------------------------|
A|----------------------------------------------------------------------------|
E|---7--7--10--7--5--3--2~---------7--7--10--7--5--3--5--3--2~---|
RULE BRITANNIA
#11
to cobain_is_king......is that seven nation army?
My Gear

Fender 2006 Highway 1 Stratocaster with SD Hot rails on Bridge
ESP LTD F-104 Bass
Roland Cube 30
Boss 0D 20 Overdrive/Distortion Pedal
Dunlop Cry Baby Wah
#12
Quote by Donkey_Balls
to cobain_is_king......is that seven nation army?

No its Smoke on the Water.
RULE BRITANNIA
#13
That's seven nation army, although I think it's supposed to be played on the a string...


Quote by Jack Off Jill
"Son, always carry a medical glove in your pocket in case you wind up in a bathroom that has no toilet paper, and you get constipated."