#2
I found this: It may look good if you paste it somewhere with courier new font (I think you may already know that ]


Main Riff 1
e----------------------------------------------------|
b----------------------------------------------------|
g-----------xx-4--xx-2-------------------------------|
D----4--4---xx-4--xx-2-------------------------------|
A----4--4---xx-2--xx-0-----4-4-4-4--4-2-0------------|
E----0--2---xx----xx-------0-2-0-2--------4----------|
                     ~  Â

Main Riff 2
e----------------------------------------------------|
b----------------------------------------------------|
g-----------xx-4--xx-2------4---2-4-2--1-2--1-2-1----|
D----4--4---xx-4--xx-2----------------------------4--|
A----4--4---xx-2--xx-0-------------------------------|
E----0--2---xx----xx---------------------------------|
              ^^        H P ~

Repeat Main Riff 1 x1

Fill 1
e----------------------------------------------------|
b----------------------------------------------------|
g-----------xx-xx-4-2---xx-xx-6-4--------------------|
D-----4-2---xx-xx-------xx-xx-----6------------------|
A-----------xx-xx-------xx-xx------------------------|
E----------------------------------------------------|
    P      P      P ~