#1
Hi, i am lookin for a tab for the song "Mirror Ball" by Alice Nine. Its a Japanese rock band(i normally dont listen to this but a friend showed me this song and i thought the solo sounded cool). But anyways can somebody please just tab this solo for me, its only 20 seconds long. Here's the song: Alice Nine - MIRROR BALL (the solo plays from 3:02 - 3:22)

So if anybody is able to tab this please help me out
Last edited by linkage25 at Sep 16, 2008,
#2
You can basically figure out what he's playing just looking at the video, just mess around in a pentatonic minor and you'll figure it out. IMO its a pretty boring solo though...
I love my...

Parker Nitefly Mojo - custom
Schecter 006 Hellraiser
Ibanez S470QS

Mesa / Boogie F-50
Vox AD50VT

Seagull Artist Studio cutaway I-beam

Ibanez ATK700
Ibanez Soundwave 35
#3
I tried, but im pretty much a beginner and i suck at figuring songs out by ear, so if anybody could help me out that would be great.
(And yeah i know its a pretty standard solo, good for newbie like me)
#6
Hi, i got this guitar thing at my school next week so if anybody could do me this little favor it would really help me out.
So if anybody got some spare time on their hands, pleeease help me out!!
#8
I was too lasy to write it out in full, but this should give you some idea...



e-19p18--------------------------------19p18--------------------------------------
B------19-19-19\14--14-12p11-12/14--14-------19-19-19\14--14-12p11-12/14--14-14-14
G---------------------------------------------------------------------------------
D---------------------------------------------------------------------------------
A---------------------------------------------------------------------------------
E---------------------------------------------------------------------------------

e------------------14----------------------------------------------------------------
B-14b16r14b16r14b16--14b16--14b16r14-12-11-------------------------------------------
G-----------------------------------------------------------------11--11b13r11-9-8-9-
D------------------------------------------11--9p8h9--------8h9h11-------------------
A-----------------------------------------------------7h9h11-------------------------
E------------------------------------------------------------------------------------
      

e-------------------------------------------------
B------9------9--12b14---9-----11----12----14-----
G-11b13--11b13-----------11b13-13b15-14b16-16b18--
D-------------------------------------------------
A-------------------------------------------------
E-------------------------------------------------

#9
Thanks man, i owe you big time. I still cant get some parts to sound right, so i got keep working on it. Again thanks man.

PS: If anybody got an alternitive way (more full version) to play it or maybe want to convert into Guitar Pro it would be greatly appreciated.
Last edited by linkage25 at Dec 22, 2008,