#2
hey dude, i fell in love with this song a couple days ago. its a weird timing, but hers the notes. listen to the song with the tab


regular tuning

Main riff
e ---------------------------------------------------------------
B ---------------------------------------------------------------
G ---------------------------------------------0----------------
D ----0h2-------------0h2---------------------0-------------
A --3~----(0)-----3~-----(0)----3~----(0)-----------------
E ---------------------------------------------------------------
* with this part, the ghost notes are hardly heard, so what i do is let the 3rd fret ring in the beging, play the 0h2 then immediately pull the 3 off to ring the (0)

ya know?

Chorus
e ---------------------------------------------------------------
B ----0~---------1---------------------------------------------
G ----0~---------0---------------------------------------------
D ----2~---------2---------------------------------------------
A ----3~---------0---------------------------------------------
E ---------------------------------------------------------------

hope this sound alright. sounds good to me anyways.