#1
Hey guys. Do y'all know any good sweeps that are in this scale?
I've been trying to work some out on my own, but it's just not working out.

|-15-12-----------------------------------------------------|
|---------15-12---------------------------------------------|
|-----------------15-14-12---------------------------------|
|-----------------------------14-13-12---------------------|
|-----------------------------------------14-13-12---------|
|-----------------------------------------------------15-12-|
Plays:
Schecter Hellraiser Solo-6 FR Limited
Parker Mojo Fly
Ibanez SZR 720
Tanglewood Evolution
LaPatrie Etude DEMO
'66 Hagstrom Viking I (customized)
SGR C-7 (defretted)
Agile Intrepid 828

Amp, Pedals:
Laney LV300
BOSS RC-20XL
Last edited by Fryer Mike at Sep 21, 2008,
#4

|--------------------------12h15p12--------------------------|
|----------------------12---------------12--------------------|
|------------------12-----------------------12----------------|
|--------------12-------------------------------12------------|
|----------14---------------------------------------14--------|
|-12h15------------------------------------------------15p12--| 
ಥ_ಥ
#6
Quote by arsonite

|--------------------------12h15p12--------------------------|
|----------------------12---------------12--------------------|
|------------------12-----------------------12----------------|
|--------------12-------------------------------12------------|
|----------14---------------------------------------14--------|
|-12h15------------------------------------------------15p12--|


woah, that's a lot of roll
Quote by Lolcheez324
1 time i was home alone and i said i want a cheeseburger and then mah dad got home and he had a bag of potatoes
#7
Quote by rolling_stoner
woah, that's a lot of roll

people use those, though. I've been trying to get those clean, and it's freaking impossible, but trust me, people use them.
#8
That sounds good actually...
I came up with pretty much everything around that... but missed that one.

Plays:
Schecter Hellraiser Solo-6 FR Limited
Parker Mojo Fly
Ibanez SZR 720
Tanglewood Evolution
LaPatrie Etude DEMO
'66 Hagstrom Viking I (customized)
SGR C-7 (defretted)
Agile Intrepid 828

Amp, Pedals:
Laney LV300
BOSS RC-20XL
#9
Quote by rolling_stoner
woah, that's a lot of roll


Yeah...but it sounds sweet at moderate to high speeds.

I don't usually work with pentatonics for sweeping, and I found that this sounded cool. You have to have the roll.
ಥ_ಥ
#10
i can sweep cleanly on all the strings as long as it doesnt involve rolling..... i need to work on that and that one is a monster...
Quote by Beowulf 2112
I hope Karma puts you in a microwave
Quote by Ex'sAndOh's
Porn is everywhere. Look around.
Porn is in the forest, in your parents bedroom, in the sea.
But most importantly, in your heart.

Gear:
Galveston Doubleneck
Peavey 5150
Slash Wah
#12
Quote by shtiming
any major or minor arppregio will work.

Can you give me a few examples? I'm not good at all with music theory related to guitar.
Plays:
Schecter Hellraiser Solo-6 FR Limited
Parker Mojo Fly
Ibanez SZR 720
Tanglewood Evolution
LaPatrie Etude DEMO
'66 Hagstrom Viking I (customized)
SGR C-7 (defretted)
Agile Intrepid 828

Amp, Pedals:
Laney LV300
BOSS RC-20XL
#13
E|---------------7--10--7---------------
B|------------8------------8------------
G|---------7------------------7---------
D|------9------------------------9------
A|--10------------------------------10--
E|--------------------------------------

It's in the Em penatonic
||||||||||||||||||||
||||||||||||||||||||
||||||||||||||||||||

#14
Quote by urik
E|---------------7--10--7---------------
B|------------8------------8------------
G|---------7------------------7---------
D|------9------------------------9------
A|--10------------------------------10--
E|--------------------------------------

It's in the Em penatonic

looks like G major to me

But yeah that guy who said every major/ minor arpeggio is right.
If you don't know them just play the notes of chords you use individually and add notes from the pentatonic "shape" they fit into.
#15
Quote by urik
E|---------------7--10--7---------------
B|------------8------------8------------
G|---------7------------------7---------
D|------9------------------------9------
A|--10------------------------------10--
E|--------------------------------------

It's in the Em penatonic

if you're gonna go that far, you might as well go

----------2h5/7p3-------------------5h8/10p7------------------------8h12/14p10---------------------------12h15/17p14-------------------
--------3-----------5------------7-------------8-----------------10--------------12--------------------13--------------15---------------
------2---------------4--------5-----------------7-------------9---------------------11-------------12---------------------14---------------------
----4-------------------5----7---------------------9--------10--------------------------12------14----------------------------16--------------
--5-----------------------7/9------------------------10/12--------------------------------14/15----------------------------------17--------------
----------------------------------------------------------------------------------------------------------------------------------------------------


and so on. (crappy tab, and it delves into the natural minor, but it fits regardless.
#16
Wow. That one's a beast.
Plays:
Schecter Hellraiser Solo-6 FR Limited
Parker Mojo Fly
Ibanez SZR 720
Tanglewood Evolution
LaPatrie Etude DEMO
'66 Hagstrom Viking I (customized)
SGR C-7 (defretted)
Agile Intrepid 828

Amp, Pedals:
Laney LV300
BOSS RC-20XL
#18
I dont find rolling 3 strings too hard, its just 2 strings that piss me off :S