#1
I've been trying to figure this out for a while now but I can't get it quite right...

0:22 - 0:30 in this vid:

http://www.youtube.com/watch?v=ed7x3vr3cCM&feature=related

Thanks!
Quote by jackbauer
playing by yourself is like masturbating, sure it feels great, but it's nothing compared to the real deal.


Quote by guylee
Oh Shit! I Have A Weird Growth On My Body!

To The Pit!



JOIN MY GROUP plox

http://groups.ultimate-guitar.com/tonelife/
#2
e|-------------x-x-x-x----------x-x----------x-x--------------x-x-x-x--------|
B|---3-h-5--5--x-x-x-x--11--9---x-x--9-h-11--x-x---3-h-5--5---x-x-x-x--------|
G|---3-h-5--5-----------11--9--------9-h-11--------3-h-5--5------------------|
D|---------------------------------------------------------------------------|
A|---------------------------------------------------------------------------|
E|---------------------------------------------------------------------------|

e|---------9-h-11-x-x--|
B|-9-h-11---------x-x--|
G|---------------------|
D|---------------------|
A|---------------------|
E|---------------------|


e|-------------x-x-x-x----------x-x----------x-x-----------------------------|
B|---3-h-5--5--x-x-x-x--11--9---x-x--9-h-11--x-x---11-9-----9----------------|
G|---3-h-5--5-----------11--9--------9-h-11--------------11------------------|
D|--------------------------------------------------------------11--9-s-\----|
A|---------------------------------------------------------------------------|
E|---------------------------------------------------------------------------|
Quote by zappp
emad I'm gonna ban you, seriously.
#3
I don't think thats quite right...
Quote by jackbauer
playing by yourself is like masturbating, sure it feels great, but it's nothing compared to the real deal.


Quote by guylee
Oh Shit! I Have A Weird Growth On My Body!

To The Pit!



JOIN MY GROUP plox

http://groups.ultimate-guitar.com/tonelife/