#1
Hello all,
I have posted that I have been looking for tabs or lessons for some moive soundtract pieces such as "Ill Tramonto" and "Padre Ramirez", both of which are soft, slow and pretty Spanish pieces off of the "Good, Bad, and Ugly" soundtract. I have also been looking for tabs and/or on-line lessons for the opening introduction to the western movie, "Rio Lobo". Thanks to Ultimate Guitar site I found tabs for "Padre Ramirez", but not the others.
If anyone knows where tabs for "Ill Tramonto" ("The Sundown") and the Rio Lobo piece can be found, I would greatly appreciate it.

To see and hear the opening introduction to the western movie "Rio Lobo", go to ( http://www.youtube.com/watch?v=VnB9lsvH_lQ ).
Thanks,
Freebooter
Alabama
What do I know of cultured ways, the gilt, the craft and the lie?
I, who was born in a naked land and bred in the open sky.
The subtle tongue, the sophist guile, they fail when the broadswords sing;
#2
Yo! I ear transcribed the rio lobo piece. I'll put it on here. beware, the spacing might not work out. if it doesn't, i'm sorry.

Written By: Jerry Goldsmith
Played By: Tommy Tedesco
Soundtrack to: Rio Lobo
Transcribed by: Danthekarateman


e[--7-5------0]--5---------3------3--{-7-5-------0--5----------}
B[-5---5----1-]---5-3-1-3--------3---{5----5----1----5-1-3-5--9}
G[---------2--]-----------------4----{---------2---------------}
D[--------2---]----------------5-----{--------2----------------}
A[-------0----]---------------5------{-------0-----------------}
E[------------]--------------3-------{-------------------------}

e------0-4-7-8-7-5--8-10-----0-5-7-8-7-5--3-5-----5-6-5-3-
B-----0---------------------1-----------------3-3---------
G----1---------------------2------------------2-2---------
D---2---------------------2-------------------4-4---------
A--2---------------------0--------------------------------
E-0-------------------------------------------------------

e-8-6-5-3----------0--------------------------------------
B----------3-5----0-0----------------3---1-----------0--1-
G----------------1------------------2---------------------
D----------------------2--2-0---------------2h3p2--2--2---
A---------------2-------------2-3--0---0---0------0-------
E--------------0------------------------------------------

e----------------------------------[]-5--------{}-7-8-7-5-5
B----------------------------------[]--5-1-3-5-{}----------
G------------2--1---------------1--[]----------{}----------
D---2h3p2--------------------4-----[]----------{}----------
A-0--------2--2----2h3p2---2---2---[]----------{}----------
E---------0-------0-------0--------[]----------{}----------

e-8-10--5-7-8-7-5-5--8-10--8-10-12------------------------------
B------------------------------------------3--5/12--15-13-12-10-
G----------------------------------1-1-1-1-2--------------------
D----------------------------------2-2-2-2-0--------------------
A----------------------------------2-2-2-2----------------------
E---------------------------------------------------------------
#3
Hey Danthekarateman, don't know if I ever thanked you or not for fixing up the Rio Lobo tabs. Just wanted to thank you for taking the time to do that and post them.
Later,
Freebooter
What do I know of cultured ways, the gilt, the craft and the lie?
I, who was born in a naked land and bred in the open sky.
The subtle tongue, the sophist guile, they fail when the broadswords sing;