#1
If anyone here can get me the tabs for the Ghostbusters theme song bassline that would be awesome.
#3
its:
G-------------------------------------------
D------------------4---7---7---6--6------
A-----------5--6---------------------------
E:--7--7-----------------------------------

more or less, you can get the rhythm
#4
Quote by afratmdk
its:
G-------------------------------------------
D------------------4---7---7---6--6------
A-----------5--6---------------------------
E:--7--7-----------------------------------

more or less, you can get the rhythm



I think it's
G-------------------------------------------
D------------------4---7---7--------------
A-----------5--6----------------7--7------
E:--7--7-----------------------------------

I remember playing it as '-----5h6h9---' on the A instead of 5 and 6 on the A and 4th on the D, but thats really not important... same notes..
#5
Arite cool awesome ty guys for quick response if you can get the full song tabs that would be badass