#1
I've been trying to tab out these two songs for awhile, I'll share what I've got so far and if anyone can add on anything or correct what I've got so far, please do. I would really like to get these two songs figured out. Any help is appreciated!

Its Okay

Here are two videos for the First song "Its Okay"
Better Audio- http://www.youtube.com/watch?v=m6lsq0Rq-u0&feature=related
Better Video- http://www.youtube.com/watch?v=fPn6GylaA6s

and here is my tab of this song so far:


e|-7p4----7p4----4---4-----7p4---7p4---4-4-4-------------------4---4/-7--7--4--4-----|
B|-----5-------5----5---5-----5------5---------5---------------5---4/-7--7--4--5-----|
G|-------------------------------------------------------------6---5/-8--8--5--6-----|
D|-------------------------------------------------------------6---6/-9--9--6--6-----|
A|-------------------------------------------------------------4---6/-9--9--6--4-----|
E|-----------------------------------------------------------------4/-7--7--4--------|


^I don't know if those are even the right chords after the intro, but they sound like they might be close to what he is using.

Alma Song
Here are two videos of the song
Good overall quality - http://www.youtube.com/watch?v=SfNsIb-w0K4
Can see hands for entire video- http://www.youtube.com/watch?v=t4SDRgiKOLg

And here is what I have so far for the tab:


e|---5----2----5----2----------------------------------2--------------|
B|---3----3----3----3-----5-----3----2----3p2----2-3-5---5-3-2-3---|
G|---------------------------------------------------------------------------|
D|-0---0----0----0-----0-----0----0----0-------0-----------------------|
A|---------------------------------------------------------------------------|
E|---------------------------------------------------------------------------|

e|---5----2----5----2-----------------------------------7-5-2-----------|
B|---3----3----3----3-----5-----3----2----3p2----2-3-5--------3---|
G|---------------------------------------------------------------------------|
D|-0---0----0----0-----0-----0----0----0-------0-----------------------|
A|---------------------------------------------------------------------------|
E|---------------------------------------------------------------------------|
Quote by C O B H C
If you want to get really technical about it..

1. Grab sticks.
2. Bang sticks on drums.


^how to play drums.


UG POKER