#1
I listened to the song "Your Love Is A Lie" by Simple Plan and started this and have gotten this far by myself. I've only been playing guitar since august so I'm looking for some wizened old players to tell me if what I've got is good so far. The notes match up. I split the four intro chords into four tabs for ease of reading. I play all of them like custom bar chords (which i think they are).

e--------------1------------
b-----------------1---------
g----------1--------1------
d-------3-------------3----
a----3---------------------
D-3------------------------

e---------------------------
b------------4-------------
g--------------------------
d-------6------------------
a----6---------------------
D-6------------------------


e---------------------------
b------------4-------------
g---------------3----------
d-------1---------1--------
a----1---------------1-----
D-1------------------------


e---------------------------
b-------------3-------------
g----------3---------------
d-------3------------------
a----1---------------------
D-------------------------

and he palm mutes RIGHT after last note in the second and fourth arpeggios.

look/sound good so far? If you saw me complaining about getting rejected last time, this is my effort to break through.

it's also difficult for my relatively inexperienced hands to play this (especially quickly and not rattling the strings against the frets on my acoustic).
Last edited by rberg79 at Sep 27, 2008,