#1
i wanqt to learn canon and i jsut dont know how to sweep this part. can u tell me where the taps are and stuff?
S S S S S S E E E S S S S E
---------------9-12S--17--12-------------------|
------------10----------------14---------------|
----------9----------------------14------------|
-------11---------------------------14---------|
--7-12---------------------------------12S-16--|
-----------------------------------------------|


|-----5-----|
S S S S S S S S S Q Q
--21-17-------17-12----------------------|
--------17----------14-------------------|
-----------18----------14----------------|
--------------------------14-------------|
-----------------------------12~---------|
-----------------------------------------|
#2
looks like you do a slide and not a tap on 17 of the high e.

That part really doesn't look that hard..
When you do things right, people won't be sure you've done anything at all
#4
okay
S S S S S S E E E S S S S E
---------------9-12S--17--12-------------------|
------------10----------------14-----------------|
----------9----------------------14---------------|
-------11---------------------------14-----------|
--7-12---------------------------------12S-16--|
----------------------------------------------------|
i p r i m i p/ p i mm m i i

|-----5-----|
S S S S S S S S S Q Q
--21-17-------17-12------------------------|
--------17------------14---------------------|
-----------18------------14------------------|
----------------------------14----------------|
-------------------------------12~-----------|
-----------------------------------------------|
p i i m p i m mm i
it really comes down to preferance but the fingerings are above
there are no taps that you speak of but it would sound pretty sweet if you added a couple
This is a G chord....i used to be in a cranberries tribute band.
#6
There's no tapping, however you can tap in place of the slide if you want to look cooler.
My Last.fm
USA Fender Stratocaster | Roland Cube 60 | VOX ToneLab LE
#7
On the high E string you can do

downstroke 9h12/17 upstroke 12

or the normal

Down 9 Up 12 down 12/17 Up 12

It's up to you