#1
In Am In Desperate Need For Someone To Help Me Harmonise This Please;

e|-------------11-14-11--------------------|
B|---------13------------13-----------------|
G|-----12------------------12---------------|
D|---------------------------------------------|
A|---------------------------------------------|
E|---------------------------------------------|

e|-------------12-13-11--------------------|
B|---------12------------12-----------------|
G|-----11------------------11---------------|
D|---------------------------------------------|
A|---------------------------------------------|
E|---------------------------------------------|

It Would Be An Immence Help If You Could Becuase I Can Sweep I Just Know Nothing About Theory A Tab Would Be Very Helpful, Thanks

x
Quote by colen
wtf is a gibson fender tellecaster
#2
e|-------------8-11-8--------------------|
B|---------8------------8-----------------|
G|-----8------------------8---------------|
D|---------------------------------------------|
A|---------------------------------------------|
E|---------------------------------------------|

e|-------------7-10-8--------------------|
B|---------8------------8-----------------|
G|-----8------------------8---------------|
D|---------------------------------------------|
A|---------------------------------------------|
E|---------------------------------------------|

its kind of hard cause ur playing chromatically and not in a particular scale, but i tried to combine like 2 scales and thats what i got