#1
HI im am bigginer at acoustic guitar.I got the basics down but i want to get better and i wanna play sum music.The only problem is i dont noe how to read tabs...can some one please help???
#2
Thread moved to a more appropriate place.
Equipment:
- Art & Lutherie Cedar CW (SOLD! )
- Martin D-16RGT w/ LR Baggs M1 Active Soundhole Pickup
- Seagull 25th Anniversary Flame Maple w/ LR Baggs Micro EQ

Have an acoustic guitar? Don't let your guitar dry out! Click here.
#3
sure um each line represents a string for example:
E at the top would be the high e string and on
each number represents the fret to be pushed down
#4
tabs, ok well basically, you know the strings, E A D G B E and they go (if your looking at the tab)
e)-----------------------------------------------------------------------------------------------------------------
B)-----------------------------------------------------------------------------------------------------------------
G)-----------------------------------------------------------------------------------------------------------------
D)-----------------------------------------------------------------------------------------------------------------
A)-----------------------------------------------------------------------------------------------------------------
E)-----------------------------------------------------------------------------------------------------------------

so if you see a number on those lines, thats the fret you wanna hit. Example
E)-2--3---2----------------------------------------------------------------------------------------------------

your going to want to pick the 2nd fret, then 3rd fret, then 2nd fret in that order.

Hope that helped.
#5
I don't know, how do I shot web?


ROW ROW FIGHT THE POWAH

THE GAME
#6
yes, it stars with:

e|-------------------------------|

^thats HIGH E^

then:

B|-------------------------------|

^thats B^

G|--------------------------------|

^G^

D|---------------------------------|

^D^

A|---------------------------------|

^A^

Then:

E|----------------------------------|

^thats LOW E (thickest)^

reading from the top it goes form thinnest to thickest

the theres the numbers which denote which fret to play.
if theres any wierd symbols, they'll usually have a key to decipher them

but some common ones are


7p4 = Play fret seven, pull of to fret four

4h7 = Play fret four, hammeron to fret seven

5~ = play fret five with vibrato

4b OR 4b5 OR 4b(5) = play fret four, then bend (if there is another number, bend to that, not it is sometimes in brackets)

3/7 = play fret three, slide to fret seven
Last edited by Telecaster7 at Oct 1, 2008,
#7
you remind me of my friend. where do you live?
Quote by TheBigProjekt
Quick question, don;t make fun of me please.
When does your dick "grow" the most, as im 14 and I'm still on the small side.

..I just don't want a small dick XD
#8
The top line of the tab is your high E string (the thinnest string). The bottom line of the tab is the low E string (the thickest one). Why it's like that I can't tell you.. it just is.

Go to the UG homepage and choose "Lessons" in the drop-down menu where you would normally search for a tab. Then type "tablature" and you will find lessons on how to read tabs.
Epiphone Les Paul Standard
Dunlop Crybaby Wah
Boss DS-1 Distortion
Boss NS-2 Noise Suppressor
Marshall JCM2000 DSL401
#9
e------------------------------------------------------------------------|
B ----------------------------------------------------------------------|
G ----------------------------------------------------------------------|
D ----------------------------------------------------------------------|
A ----------4-------5-------4-------2-----------------2----------- |
E ----2-2-------2-------2-------2-------5---4---5-----5---4---0--|
mm m m m m m m


see that? the letters on the side are your strings. the highest one on the tab (little e) is the thinnest string on your guitar. the numbers are fret positions on that string. you then just read it left to right. that is the intro to crazy train.

the m's mean palm mutes on this but look at the legend on tabs different people use different things. like the 12/ means slide down from the 12th position.

and a chord is shown as vertical numbers

E-0-------- 0---------------- 0-0------0-----------|
B-2-0---0--3------3---------2-----0--3--3--------|
G-2---2----2----2---2-------2---2----2----2------|
D-2------- 3--3-------3-----2-------- 3------3----|
A-0-------- 0------------0--- 0-------- 0--------0--|
D------------------------------------------------|


that is the very beginning of ten years gone by led zeppelin. if you just started do not bother trying to learn that yet. learn crazy train first it is easy.


EDIT: the alignment got butchered but you can tell what i mean.
#10
Well, now that you have five explanations....

Anyway, I didn't see it higher up, but it might be useful to note that notes (numbers) stacked directly on top of each other (from string to string) mean they are played at the same time, like a chord for example. And if you didn't already know, it's read/played left to right.
I like to go to the playground, and watch all the little children jump and run around. But they don't know that I'm only using blanks.