#1
I have two tabs for this song and I can play most of it perfect except the mini solo with the string bends, Ive been trying for a while but I can't quite get it to sound the same as the song using either tab, anyone know how to play it correctly?
#2
for example, place your fingers on B|--5, G|--7 and then bend up just 7 so it reaches the same note sound as 5 ( very important,don't bend 5), do this with an electric guitar, usually acoustic guitar strings aren't flexible enough....


e|----------------------------------------------------------------------------------|
B|--5----3-----2-----3---------3----5-------2----3---------7h8p7--77-7~--|
G|--7^--5^----4^---5^----------5^--7^-----4^--5^---------------------------|
D|----------------------------------------------------------------------------------|
A|----------------------------------------------------------------------------------|
E|----------------------------------------------------------------------------------|

e|----------------------------------------------------------------------------------------------------------------2---|
B|--5----3-----2-----3------555----77777----555--77777----555--77777---5--7--7\5--5\3---3--|
G|--7^--5^---4^---5^------666----77777----666--77777----666--77777---4--6--6\4--4\2---2--|
D|----------------------------------------------------------------------------------------------------------------0--|
A|--------------------------------------------------------------------------------------------------------------|
E|--------------------------------------------------------------------------------------------------------------|
Last edited by crmrz at Oct 4, 2008,