#1
does anyone know where i can find a tab for a more complex one than on this site?
heres what i want.
http://www.youtube.com/watch?v=d3UTHj16ukM
thanks
My Gear:
Fender Custom Shop Time Machine 1956 relic
plus accessories
Your position and your relationship with music has to be one from the inside. - John Frusciante
and yes, my avatar is weezy, what?
#2
this is just a part of it ...

e|---12-12 12 -------12-----15-----------------------|
B|------------------13-----------------------------------|
G|---10-10-10---10-10-----12-------12\-----------|
D|--------------------------------------------------------|
A|-------------------------------10------10\------------|
E|---10-10-10----10-10-------------------------------|


e|--8-------------------5----7-6-5-----------0---3--5--1---3---0-----------------|
B|--------8----5--------------------------------------------------------1--3--0------|
G|----------------------------------------0----0---4--5--2---4---0------------------|
D|--5-------------------3----5-4-3-----2-----------------------------2---3----------| 2X
A|--------7---3------------------------------------------------------------------------|
E|--------------------------------------------------------------------------------------|


e|------3-2--1--------0------------------------------------3-2-1--------0----8-8-8-----------|
B|---------------4----------------------1-----1--3-----------------4----------------------------|
G|--------0---------5---------------2------2------------------0-------5------------------------|
D|------------------------------3-----------------------------------------------------------5-----|
A|--3---------------------------------------------------3------------------------8-8-8----------|
E|---------------------------1---------------------------------------------------------------------|

e|------3-2--1--------0-------------------------------------------------------------|
B|---------------4----------------------1-----1--3----------------------------------|
G|--------0---------5---------------2------2----------5---7----9\-----------------| 2x
D|------------------------------3-----------------------6---8----10\-----5-5------|
A|--3-----------------------------------------------------------------------------3--|
E|---------------------------1--------------------------4----6---8\-----------------|

e|-------------------------0----------------------------------0-----------|
B|----------------------------1-------------------------------------------|
G|---5-5-5-----5--7-----------2--0-----5-5-5-----5--7--------5-----|
D|---6-6-4--------------------------------6-6-4---------------------3--|
A|-----------6------------3------------------------6---------3-----------|
E|---4-4-4--------------------------------4-4-4-------------------------|

e|-------------------------0---------------12-12-12-------12---15------------|
B|----------------------------1--------------------------13-----------------------|
G|---5-5-5-----5--7-----------2--0-----10-10-10---10-10---12-----12\----|
D|---6-6-4-------------------------------------------------------------------------|
A|-----------6------------3----------------------------------------10------10\---|
E|---4-4-4--------------------------------10-10-10---10-10-------------------|
#3
Click on the link in the video description. That website has the tab for the song.
Josh Homme writes the greatest lyrics EVAR:
"I wish we could get away
Drink wine and screw"


"Nicotine, valium, vicodin, marijuana, ecstasy, and alcohol
C-C-C-C-Cocaine!"


"I wanna lick you too much"



Own this Black Sabbath shirt?