#1
for the past couple days i wanted to learn the riff for the ocean that jimmy page does live. the little lick i wanna know how to play is during the lalalalalalalalalalalala and he does this sick riff that i wanna learn. so can anybody tab it?
When I buy my wife, at first she cook good, her vagine worked well, she strong on plow, but three years later when she was fifteen, she receive hair on her chest, her voice become deep, "BORAT, BORAT", and her vagine hang like sleeve of wizard
#2

E--------------------------------------------|
B--------------------------------------------|
G-----------------5---------------------------|
D-----------5-----------7p5h5~~----------|
A------7--------------------------------------|
E--------------------------------------------|



and the second one:

E--------------------------------------------|
B--------------------------------------------|
G---4b5---4p2--------2~~---------------|
D------------------4------------------------|
A--------------------------------------------|
E--------------------------------------------|


There you go. Practice your aural skills dude. That was very easy.
"Good and evil lay side by side as electric love penetrates the sky"
Last edited by GuitarNinja12 at Oct 5, 2008,
#3
ok thanks man. i really needed that
When I buy my wife, at first she cook good, her vagine worked well, she strong on plow, but three years later when she was fifteen, she receive hair on her chest, her voice become deep, "BORAT, BORAT", and her vagine hang like sleeve of wizard