#1
I Have been looking everywhere for a good tab and cant find one. Please help me out so i can play the song.

Thanks
#2
e----------------------
b----------------------
g----------------------
d-----6---------------
a-----8---------------
e-----8---------------x5

e-----------
b-----------
g-----------
d-----10---
a-----10---
e-----8-----x5

e------------
b------------
g------------
d-----12----
a-----12----
e-----10----x5